Cifra Club

Join Me

Him

Chords: Principal (acoustic and electric guitars)
tone: B
-----14-16-------|----11-12---------|--6-7-------|
-----------------|------------------|------------|
---16------------|---13-------------|--8---------|
-14--------------|-11---------------|-6----------|
-----------------|------------------|------------|
-----------------|------------------|------------|

(intro - chorus) (3x)

-2-4---------|-----4-6---------|
-------------|-----------------|
-------------|---6-------------|
-------------|-4---------------|
-------------|-----------------|
-------------|-----------------|

(verse)

G#m        D#m7
We are so young
    G#m             D#m7
Our lives have just begun
    G#m            D#m7
But already we are considering
C#m              F#
Escape from this world

And we've waited for so long
For this moment to come
We're so anxious to be together
Together in death

(chorus)
E         C#m             G#m
Would you die tonight for love? (Baby, join me in death)
E        C#m G#m
Would you die?    (Baby join me in death)
E         C#m             G#m
Would you die tonight for love? (Baby, join me in death)
E        C#m G#m                          E  F#
Would you die?    (Baby join me in death)

(verse)
This world is a cruel place
And we're here only to lose
So before life tears us apart
Let death bless me with you

(chorus)
E         C#m             G#m
Would you die tonight for love? (Baby, join me in death)
E        C#m G#m
Would you die?    (Baby join me in death)
E         C#m             G#m
Would you die tonight for love? (Baby, join me in death)
E        C#m G#m                          E  F#
Would you die?    (Baby join me in death)

(brigde)
This live ain`t worth living
Join me, join me, join me
Join me, join me, join me
This life ain`t worth living!

(chorus)
Would you die tonight for love? (Baby, join me in death)
So would you die?    (Baby, join me in death)
Would you die tonight for love? (Baby, join me in death)
You can join me in death
00:00 / 00:00
Other videos of this song
Repeat
Other videos of this song
Composed by Ville Valo
Collaboration and Review:
  • Hebert Ferreira
  • Emilio Bugs
1.627 views
    • ½ Tone
    • A
    • Bb
    • B
    • C
    • Db
    • D
    • Eb
    • E
    • F
    • F#
    • G
    • Ab
  • Add to list
    00:00 / 00:00
    OK