Cifra Club

One Last Time

Him

Cifrado: Principal (guitarra y guitarra eléctrica)
tono: B
Info:   /   ->  Slide up
          \     ->  Slide down
          ~     ->  Vibrato

                              
    ARPEGGIO 1 (3°TIME)                
    KEYBOARD 1 (3°TIME)                         
E||-------------------------|--------------|----------------------|
B||-------------------------|--------------|----------------------|
G||*------------------------|--------------|----------------------|
D||*------------------------|--------------|----------------------|
A||---------------------13~-|--------------|--11~-----------------|
E||---7~---------9/-11------|---11\-9/-11--|------------9/-11\-9~-|


                        4x  KEYBOARD 1
|------------------------||------------------|-------------------|
|------------------------||------------------|-------------------|
|-----------------------*||------------------|-------------------|
|-----------------------*||------------------|-------------------|
|------------------------||--------------13~-|-------------------|
|------------11\-9/-11---||--7~---9/-11------|--------11\-9/-11--|

                                             
|------------------------|------------------|
|------------------------|------------------|
|------------------------|------------------|
|------------------------|------------------|
|--11~-------------------|------------------|
|--------------9/-11\-9~-|------------------|

    
   Verse1
   KEYBOARD 2   8x                                           
||---------------||-----------------------|------------------|
||---------------||-----------------------|------------------|
||*-------------*||*----------------------|------------------|
||*-------------*||*--------8--9----------|------------------|
||---------------||------6----------------|------------------|
||---------------||---4-------------------|------------------|


                         Chorus1
|----------------------|-------------------||
|----------------------|-------------------||
|-----------3----------|------------------*||
|--------4-------------|------------------*||
|-----4----------------|-------------------||
|--2-------------------|-------------------||


  ARPEGGIO 2    
  KEYBOARD 1                                                                             
|------------------------|---------------|--------------------|
|------------------------|---------------|--------------------|
|------------------------|---------------|--------------------|
|------------------------|---------------|--------------------|
|--------------------13~-|---------------|--11~---------------|
|--7~---------9/-11------|----11\-9/-11--|----------9/-11\-9~-|

                          KEYBOARD 1                                             
|-----------------------|------------------------|--------------|
|-----------------------|------------------------|--------------|
|-----------------------|------------------------|--------------|
|-----------------------|------------------------|--------------|
|-----------------------|--------------------13~-|--------------|
|------------11\-9/-11--|--7~---------9/-11------|---11\-9/-11--|

                                             
|------------------------|------------------|
|------------------------|------------------|
|------------------------|------------------|
|------------------------|------------------|
|--11~-------------------|------------------|
|--------------9/-11\-9~-|------------------|


  Verse2
  KEYBOARD 2   8x                                           
|---------------||-----------------------|------------------|
|---------------||-----------------------|------------------|
|*-------------*||*----------------------|------------------|
|*-------------*||*--------8--9----------|------------------|
|---------------||------6----------------|------------------|
|---------------||---4-------------------|------------------|

                         Chorus2
|----------------------|-------------------||
|----------------------|-------------------||
|-----------3----------|------------------*||
|--------4-------------|------------------*||
|-----4----------------|-------------------||
|--2-------------------|-------------------||

                     
  FINALE
  KEYBOARD 1                                                                             
|-------------------------|----------------|-------------------|
|-------------------------|----------------|-------------------|
|*------------------------|----------------|-------------------|
|*------------------------|----------------|-------------------|
|---------------------13~-|----------------|--11~--------------|
|---7~---------9/-11------|-----11\-9/-11--|---------9/-11\-9~-|

                  6x                                          
|------------------||-------------------|------------------------||
|------------------||-------------------|------------------------||
|-----------------*||*------------------|-----------------------*||
|-----------------*||*------------------|-----------------------*||
|------------------||---11~-------------|------------------------||
|------11\-9/-11---||---------9/-11\-9~-|------------11\-9/-11---||

                      
                      Chorus_End          KEYBOARD 1                              
|-------------------|------------------||-------------------------|
|-------------------|------------------||-------------------------|
|-------------------|------------------||*------------------------|
|-------------------|------------------||*------------------------|
|--11~--------------|------------------||---------------------13~-|
|---------9/-11\-9~-|------------------||---7~---------9/-11------|

                                                               10x
|-----------------|--------------------|------------------------||
|-----------------|--------------------|------------------------||
|-----------------|--------------------|-----------------------*||
|-----------------|--------------------|-----------------------*||
|-----------------|--11~---------------|------------------------||
|------11\-9/-11--|----------9/-11\-9~-|------------11\-9/-11---||

ARPEGGIO 1
(Acustic guitar)
      
                                                       
E||-------------------|-------------------|-----------------------|
B||---4---4--4--4-----|--2--2----2--2-----|--0------0----0--0-----|
G||*--4---4--4--4--3--|--3--3----3--3--0--|--1------1----1--1--0--|
D||*--4---4--4--4--0--|--4--4----4--4--0--|--2------2----2--2--0--|
A||---2---2--2--2-----|--4--4----4--4-----|--2------2----2--2-----|
E||-------------------|-------------------|-----------------------|

                          
|------------------------||
|--2------2----2--2--0---||
|--3------3----3--3--0--*||
|--4------4----4--4-----*||
|--4------4----4--4------||
|------------------------||KEYBOARD 1

E|-7-11-9-7-6-|-2-7-6-4-|------|------|
B|------------|---------|------|------|
G|------------|---------|------|------|
D|------------|---------|------|------|
A|------------|---------|------|------|
E|------------|---------|------|------|KEYBOARD 2
                                                
            
E||--------------------|-------------------|-------------------|
B||--------------------|-------------------|-------------------|
G||*-------------------|-------------------|-------------------|
D||*--6----------------|--9----------------|--4----------------|
A||--------------------|-------------------|-------------------|
E||--------------------|-------------------|-------------------|

                                                                                
|--------------|--------------|---------------|-------------------|
|--------------|--------------|---------------|-------------------|
|--------------|--------------|---------------|-------------------|
|--2-----------|--6-----------|--9------------|--4----------------|
|--------------|--------------|---------------|-------------------|
|--------------|--------------|---------------|-------------------|

                       
|---------------------||
|---------------------||
|--------------------*||
|--2--------1--------*||
|---------------------||
|---------------------||ARPEGGIO 2

                                                                     
E||-------------------|-------------------|-----------------------|
B||---4-4----4--4-----|--2--2----2--2-----|--0------0----0--0-----|
G||*--4-4----4--4--3--|--3--3----3--3--0--|--1------1----1--1--0--|
D||*--4-4----4--4--0--|--4--4----4--4--0--|--2------2----2--2--0--|
A||---2-2----2--2-----|--4--4----4--4-----|--2------2----2--2-----|
E||-------------------|-------------------|-----------------------|

                          
|------------------------||
|--2------2----2--2--0---||
|--3------3----3--3--0--*||
|--4------4----4--4-----*||
|--4------4----4--4------||
|------------------------||FINALE
                                
                  
E||--------------------|-------------------|-----------------------|
B||---4--4----4--4-----|--2--2----2--2-----|--0------0----0--0-----|
G||*--4--4----4--4--3--|--3--3----3--3--0--|--1------1----1--1--0--|
D||*--4--4----4--4--0--|--4--4----4--4--0--|--2------2----2--2--0--|
A||---2--2----2--2-----|--4--4----4--4-----|--2------2----2--2-----|
E||--------------------|-------------------|-----------------------|


                        6x                                       
|------------------------||-------------------|------------------|
|--2------2----2--2--0---||--0----------------|------------------|
|--3------3----3--3--0--*||--1----------------|------------------|
|--4------4----4--4-----*||--2----------------|------------------|
|--4------4----4--4------||--2----------------|------------------|
|------------------------||--0----------------|------------------|

                                                                              
|------|--------|-------------------|------------------|
|-0----|--------|--0----------------|------------------|
|-1----|--------|--1----------------|------------------|
|-2----|--------|--2----------------|------------------|
|-2----|--------|--2----------------|------------------|
|-0----|--------|--0----------------|------------------|

                                                                          
|------------------|-------------------|-----------------------|
|---4--4--4--4-----|--2--2----2--2-----|--0------0----0--0-----|
|*--4--4--4--4--3--|--3--3----3--3--0--|--1------1----1--1--0--|
|*--4--4--4--4--0--|--4--4----4--4--0--|--2------2----2--2--0--|
|---2--2--2--2-----|--4--4----4--4-----|--2------2----2--2-----|
|------------------|-------------------|-----------------------|

                        10x                     
|------------------------||-------------------||
|--2------2----2--2--0---||--4----------------||
|--3------3----3--3--0--*||--4----------------||
|--4------4----4--4-----*||--4----------------||
|--4------4----4--4------||--2----------------||
|------------------------||-------------------||
Composición de Ville Valo
Colaboración y revisión:
  • Hellektra
133 vistas
    • ½ Tono
    • A
    • Bb
    • B
    • C
    • Db
    • D
    • Eb
    • E
    • F
    • F#
    • G
    • Ab
  • Agregar a la lista

    0 comentarios

    Ver todos los comentarios

    ¿Lograste tocar?

    0 Tocaron 0 Aún no

    ¡Graba un video tocando One Last Time y envíanoslo!

    00:00 / 00:00
    Outros vídeos desta música
    Repetir Calidad Automático
    Outros vídeos desta música
    00:00 / 00:00
    Automático
    OK