Cifra Club

The Path

Him

Cifrado: Principal (guitarra y guitarra eléctrica)
tono: C
Key: 
/ = Slide Up
\ = Slide Down
b = Bend
() = Guitar Effect (I'm not sure what one, but it's definately
more then regular distortion)

Intro/Chorus 1
(After piano intro, distortion)

|-----------------------------------------------|
|-----------------------------------------------|
|-----------------------------------------------|
|-----------------------------------------------|
|3---10-10\9-7-5--5\4-2-3---10-10\9-7-5--5\4-2-3|
|1---8---8\7-5-3--3\2-0-1---8---8\7-5-3--3\2-0-1|

|-------------------------|
|-------------------------|
|-------------------------|
|-------------------------|
|10-10\9-7-5--5\4-2-12---5|
|8---8\7-5-3--3\2-0-10---3|


Chorus 1


Chorus 2
(distortion)

|-----------------------------------------------|
|-----------------------------------------------|
|-----------------------------------------------|
|-----------------------------------------------|
|3---10-10\9-7-5--5\4-2-3---10-10\9-7-5--5\4-2-3|
|1---8---8\7-5-3--3\2-0-1---8---8\7-5-3--3\2-0-1|

|----------------------------------|
|----------------------------------|
|----------------------------------|
|----------------------------------|
|10-10\9-7-5--5\4-2-12---5---10---3|
|8---8\7-5-3--3\2-0-10---3---10---3|


Solo
(distortion)

|------------------------------------------|
|------------------------------------------|
|------------------------------------------|
|-----------------------------------2-4-(2)|
|6-4-2-4/6\4-2-7b--7-5-3/4\3-8-7-5-3-------|
|------------------------------------------|

|----------------------------------------------------------------------|
|----------------------------------------------------------------------|
|----------------------------------------------------------------------|
|2-4-6-8/9\8-6-9-8-6-8/9\8-6-8/9\8-6-8--6-4----------------------------|
|------------------------------------------5-7-7/9\7-7-5-3-7--7-7-5-3-3|
|----------------------------------------------------------------------|



Chorus 3
(distortion)


|-----------------------------------------------|
|-----------------------------------------------|
|-----------------------------------------------|
|-----------------------------------------------|
|3---10-10\9-7-5--5\4-2-3---10-10\9-7-5--5\4-2-3|
|1---8---8\7-5-3--3\2-0-1---8---8\7-5-3--3\2-0-1|

|-------------------|        |------|
|-------------------|        |------|
|-------------------|        |------|
|-------------------|  2X    |------|  (Play at the end of 
|10-10\9-7-5--5\4-2-|        |12---5|   the first chorus ONLY.)
|8---8\7-5-3--3\2-0-|        |10---3|

|--------------|
|--------------|
|--------------|
|--------------|    4X
|12-14-15-19-17|
|10-12-13-17-15|



Riff Order

Intro
Chorus 1
Chorus 2
Solo
Chorus 3
00:00 / 00:00
Otros videos de esta canción
Repetir
Otros videos de esta canción
Composición de Ville Valo
Colaboración y revisión:
  • Hellektra
166 vistas
    • ½ Tono
    • A
    • Bb
    • B
    • C
    • Db
    • D
    • Eb
    • E
    • F
    • F#
    • G
    • Ab
  • Agregar a la lista

    0 comentarios

    Ver todos los comentarios

    ¿Lograste tocar?

    0 Tocaron 0 Aún no

    ¡Graba un video tocando The Path y envíanoslo!

    00:00 / 00:00
    OK