Cifra Club

Get Stoned

Hinder

Cifrado: Versão 4 (guitarra y guitarra eléctrica)
tono: Bb
Intro
Guitar 1
e|--------------------------------------------------|
B|-11----11----10----10----12----12----13----15-----|
G|----12----12----12----12----12----12----12----12--|x2
D|--------------------------------------------------|
A|--------------------------------------------------|
D|--------------------------------------------------| 

e|-------------------------------------------|
B|-------------------------------11-10-------|
G|-12-10----10-12-10----12-10----------12-10-|
D|-------12----------12-------12-------------|
A|-------------------------------------------|
D|-------------------------------------------|

e|----------------------------------------------|
B|-------------------------------11-10----------|
G|-12-10----10-12-10----12-10----------12-10----|
D|-------12----------12-------12-------------12-|
A|----------------------------------------------|
D|----------------------------------------------|

Guitar 2
e|-X-X---------------------------------|
B|-X-X---------------------------------|
G|-X-X---------------------------------|
D|-X-X-5-5-5-5-8-8-8-8-3-3-3-3-1-1-1-1-|
A|-X-X-5-5-5-5-8-8-8-8-3-3-3-3-1-1-1-1-|
D|-X-X-5-5-5-5-8-8-8-8-3-3-3-3-1-1-1-1-|

e|------------------------------------|
B|------------------------------------|
G|------------------------------------|
D|-5-5-5-5-8-8-8-8-3-3-3-3-1-1-1-1-5~-|
A|-5-5-5-5-8-8-8-8-3-3-3-3-1-1-1-1-5~-|
D|-5-5-5-5-8-8-8-8-3-3-3-3-1-1-1-1-5~-|

Verse
e|---------------------------------|
B|---------------------------------|
G|---------------------------------|x3
D|-5-5-5-5-8-8-8-8-3-3-3-3-1-1-1-1-|
A|-5-5-5-5-8-8-8-8-3-3-3-3-1-1-1-1-|
D|-5-5-5-5-8-8-8-8-3-3-3-3-1-1-1-1-|


Pre chorus 

e|----------------------------------------------------------------|
B|-11--11---10---10---12---12---13---15---11---11---10---10-------|
G|---12---12---12---12---12---12---12---12---12---12---12---12----|
D|-------------------------------------------------------------12-|
A|----------------------------------------------------------------| 
D|----------------------------------------------------------------| 

e|-------------------------------------------------------------|
B|-------------------------------------------------------------|
G|-------------------------------------------------------------|
D|-1-1-1-1-3-3-3-3-5-5-5-5-5-5-5-1-1-1-1-3-3-3-3-5-5-5-5-5-5-5-|
A|-1-1-1-1-3-3-3-3-5-5-5-5-5-5-5-1-1-1-1-3-3-3-3-5-5-5-5-5-5-5-|
D|-1-1-1-1-3-3-3-3-5-5-5-5-5-5-5-1-1-1-1-3-3-3-3-5-5-5-5-5-5-5-|
Chorus

e|-----------------------------------------------------------------|
B|-----------------------------------------------------------------|
G|-----------------------------------------------------------------|
D|-5-5-5-5-8-8-8-8-3-3-3-3-1-1-1-1-5-5-5-5-8-8-8-8-3-3-3-3-1-1-1-1-|
A|-5-5-5-5-8-8-8-8-3-3-3-3-1-1-1-1-5-5-5-5-8-8-8-8-3-3-3-3-1-1-1-1-|
D|-5-5-5-5-8-8-8-8-3-3-3-3-1-1-1-1-5-5-5-5-8-8-8-8-3-3-3-3-1-1-1-1-|

Then the end of chorus bit
Guitar 1
e|-------------13----------------------13----13-15----|
B|----11-10-11----11-10-11----11-10-11----11-------11-|
G|-12----------------------10-------------------------|
D|----------------------------------------------------|
A|----------------------------------------------------|
D|----------------------------------------------------|

Guitar 2
e|-----------------------------------------------------------------|
B|-----------------------------------------------------------------|
G|-----------------------------------------------------------------|
D|-1-1-1-1-3-3-3-3-5-5-5-5-5-5-5-1-1-1-1-3-3-3-3-5-5-5-5-5-5-5-5-5-|
A|-1-1-1-1-3-3-3-3-5-5-5-5-5-5-5-1-1-1-1-3-3-3-3-5-5-5-5-5-5-5-5-5-|
D|-1-1-1-1-3-3-3-3-5-5-5-5-5-5-5-1-1-1-1-3-3-3-3-5-5-5-5-5-5-5-5-5-|

Verse 2
e|---------------------------------|
B|---------------------------------|
G|---------------------------------|x3
D|-5-5-5-5-8-8-8-8-3-3-3-3-1-1-1-1-|
A|-5-5-5-5-8-8-8-8-3-3-3-3-1-1-1-1-|
D|-5-5-5-5-8-8-8-8-3-3-3-3-1-1-1-1-|

Pre Chorus
e|----------------------------------------------------------------|
B|-11--11---10---10---12---12---13---15---11---11---10---10-------|
G|---12---12---12---12---12---12---12---12---12---12---12---12----|
D|-------------------------------------------------------------12-|
A|----------------------------------------------------------------| 
D|----------------------------------------------------------------|

e|-------------------------------------------------------------|
B|-------------------------------------------------------------|
G|-------------------------------------------------------------|
D|-1-1-1-1-3-3-3-3-5-5-5-5-5-5-5-1-1-1-1-3-3-3-3-5-5-5-5-5-5-5-|
A|-1-1-1-1-3-3-3-3-5-5-5-5-5-5-5-1-1-1-1-3-3-3-3-5-5-5-5-5-5-5-|
D|-1-1-1-1-3-3-3-3-5-5-5-5-5-5-5-1-1-1-1-3-3-3-3-5-5-5-5-5-5-5-|

Chorus 

e|-----------------------------------------------------------------|
B|-----------------------------------------------------------------|
G|-----------------------------------------------------------------|
D|-5-5-5-5-8-8-8-8-3-3-3-3-1-1-1-1-5-5-5-5-8-8-8-8-3-3-3-3-1-1-1-1-|
A|-5-5-5-5-8-8-8-8-3-3-3-3-1-1-1-1-5-5-5-5-8-8-8-8-3-3-3-3-1-1-1-1-|
D|-5-5-5-5-8-8-8-8-3-3-3-3-1-1-1-1-5-5-5-5-8-8-8-8-3-3-3-3-1-1-1-1-|

Solo

Guitar 1
e|-------10----10/11-11-10-10-11-18--------10----10/11-11-10-10-11-10--|
B|----11----11--------------------------11----11-----------------------|
G|-10--------------------------------10--------------------------------|
D|---------------------------------------------------------------------|
A|---------------------------------------------------------------------|
D|---------------------------------------------------------------------|

e|-15-----13-----15p13--------------------------------------|
B|---------------------15p13--------------------------------|
G|---------------------------15-----17-17b-17b-17b-17b------|
D|-----------------------------------------------------20b~-|
A|----------------------------------------------------------|
D|----------------------------------------------------------|

Guitar 2 
e|-----------------------------------------------------------------|
B|-----------------------------------------------------------------|
G|-----------------------------------------------------------------|
D|-5-5-5-5-8-8-8-8-3-3-3-3-1-1-1-1-5-5-5-5-8-8-8-8-3-3-3-3-1-1-1-1-|
A|-5-5-5-5-8-8-8-8-3-3-3-3-1-1-1-1-5-5-5-5-8-8-8-8-3-3-3-3-1-1-1-1-|
D|-5-5-5-5-8-8-8-8-3-3-3-3-1-1-1-1-5-5-5-5-8-8-8-8-3-3-3-3-1-1-1-1-|

Bridge
e|----------------------------------------------------------------------|
B|-11---11---10---10---12---12---13---14---11---11---10---10---12---12~-|
G|-12---12---12---12---12---12---12---12---12---12---12---12---12---12~-| 
D|----0----0----0----0----0----0----0----0----0----0----0----0----0-----|
A|----------------------------------------------------------------------|
D|----------------------------------------------------------------------|

Chorus
e|-----------------------------------------------------------------|
B|-----------------------------------------------------------------|
G|-----------------------------------------------------------------|
D|-5-5-5-5-8-8-8-8-3-3-3-3-1-1-1-1-5-5-5-5-8-8-8-8-3-3-3-3-1-1-1-1-|
A|-5-5-5-5-8-8-8-8-3-3-3-3-1-1-1-1-5-5-5-5-8-8-8-8-3-3-3-3-1-1-1-1-|
D|-5-5-5-5-8-8-8-8-3-3-3-3-1-1-1-1-5-5-5-5-8-8-8-8-3-3-3-3-1-1-1-1-|

Then the end of chorus bit
Guitar 1
e|-------------13----------------------13----13-15----|
B|----11-10-11----11-10-11----11-10-11----11-------11-|
G|-12----------------------10-------------------------|
D|----------------------------------------------------|
A|----------------------------------------------------|
D|----------------------------------------------------|

Guitar 2
e|-----------------------------------------------------------------|
B|-----------------------------------------------------------------|
G|-----------------------------------------------------------------|
D|-1-1-1-1-3-3-3-3-5-5-5-5-5-5-5-1-1-1-1-3-3-3-3-5-5-5-5-5-5-5-5-5-|
A|-1-1-1-1-3-3-3-3-5-5-5-5-5-5-5-1-1-1-1-3-3-3-3-5-5-5-5-5-5-5-5-5-|
D|-1-1-1-1-3-3-3-3-5-5-5-5-5-5-5-1-1-1-1-3-3-3-3-5-5-5-5-5-5-5-5-5-|


Outro
Guitar 1
e|-----------6---------------6-----------------------------------|
B|---------------------------------------------------------------|
G|---7---7-8---8-7---7-8---8---8------7---7-8---8-7---7-8---8-7--|
D|-8---8-----------8-----8----------8---8-----8-----8-----8------|
A|-------------------------------10------------------------------| x3
D|---------------------------------------------------------------| 

e|-15-14-15-14-15-14-15-|
B|----------------------|
g|----------------------|
D|----------------------|
A|----------------------|
D|----------------------| 

e|---------------------------------------------------------------|
B|---------------------------------------------------------------|
G|---------------------------------------------------------------|
D|-1-1-1-1-3-3-3-3-5-5-5-5-5-5-5-1-1-1-1-3-3-3-3-5-5-5-5-5-5-5-5-|
A|-1-1-1-1-3-3-3-3-5-5-5-5-5-5-5-1-1-1-1-3-3-3-3-5-5-5-5-5-5-5-5-|
D|-1-1-1-1-3-3-3-3-5-5-5-5-5-5-5-1-1-1-1-3-3-3-3-5-5-5-5-5-5-5-5-|

e|--------------------------------------------|
B|--------------------------------------------|
G|--------------------------------------------|
D|-1-1-1-1-3-3-3-3-5-5-5-5-5-5-5-1-1-1-1-3-3~-|
A|-1-1-1-1-3-3-3-3-5-5-5-5-5-5-5-1-1-1-1-3-3~-|
D|-1-1-1-1-3-3-3-3-5-5-5-5-5-5-5-1-1-1-1-3-3~-|

Plz leave a comment or ranting





 



Composición de Austin Winkler / Brian Howes / Cody Hanson / Joe Garvey / Joey Moie / Mark King / Mike Rodden
3 vistas
    • ½ Tono
    • A
    • Bb
    • B
    • C
    • Db
    • D
    • Eb
    • E
    • F
    • F#
    • G
    • Ab
  • Agregar a la lista

    0 comentarios

    Ver todos los comentarios
    00:00 / 00:00
    Outros vídeos desta música
    Repetir Calidad Automático
    Outros vídeos desta música
    00:00 / 00:00
    Automático
    OK