Cifra Club

Aprenda

Get Stoned

Hinder

Tab de bajo: Principal
Intro
G---------------------------------|
D---------------------------------|
A---------1-1-1-1-----------------|
E-3-3-3-3---------1-1-1-1---------|
B-------------------------4-4-4-4-|

Verse
G-----------------------------|
D------------8----------------|
A--------------8--8-8-8-8-8---|
E-3--3-3/6-6------------------|
B-----------------------------|

Pre Chorus
G--------------------------3--1-3------|
D------3-1-----5-3-----3----------3-1--|
A--------------------------------------|
E------------------3-3---3-------------|
B--4-4-----6-6-------------------------|

E-------------------------|
D-----3-1-----5-3---------|
A-------------------------|
E-------------------------|
B-4-4-----6-6-----3-33333-|

Chorus
G---------------------------------|
D---------------------------------|
A---------------------------------| x2
E-3-3-3-3-1-1-1-1-----------------|
B-----------------1-1-1-1-1-1-1-3-|

Post Chorus
G---------------------------3--1-3-----|
D-----------------------3----------3-1-|
A--------------------------------------|
E-------------------3-3---3------------|
B-4-4-4-4---6-6-6-6--------------------|

Intro x1
Verse x3
Pre Chorus x1
Chorus x3
Post Chorus

Bridge
G---------------------------------|
D---------------------------------|
A---------1-1-1-1-----------------|
E-3-3-3-3---------1-1-1-1---------|
B-------------------------4-4-4-4-|

G---------------------------------|
D---------------------------------|
A---------1-1-1-1-----------------|
E-3-3-3-3---------1-1-1-1---------|
B-------------------------3-3-3-3-|

short pause, then...

G----------|
D----------|
A----------|
E------1-3-|
B-7/4------|

Chorus x2
Post Chorus x2

Ending
G-----------------------------------|
D-----------------------------------|
A-----------------------------------| x3
E-----------------3-3-3-3-1-1-1-1---|
B-1-1-1-1-4-4-4-4-------------------|

G----------------|
D----------------|
A----------------|
E----------------|
B-1-1-1-1--4--4~-|
Compositor Austin Winkler / Brian Howes / Cody Hanson / Joe Garvey / Joey Moie / Mark King / Mike Rodden
11 reproducciones

0 comentarios

Mostrar mais comentários
00:00 / 00:00
outros vídeos desta música
repetir qualidade Automático
Outros vídeos desta música
00:00 / 00:00
Automático
OK