Cifra Club

Lay Me Down Intro

Hinder

Tablatura: Principal (guitarra)
Tom: A
Tabbed by:Phillip
Email:C*

Tuning:Standard

This is a song off the 2003 Far From Close CD.  It is hard to find because they only 
5,000 copies.

Guitar 1

e|---------------------------------------------------------------------------|
B|-17------------------------------------------------------------------------|
G|----19---------------------------------------------------------------------|
D|-------0-------------------------------------------------------------------|
A|-------0-------------------------------------------------------------------|
E|---------------------------------------------------------------------------|
Lead guitar does this riff once and then second guitar comes in
e|---------------------------------------------------------------------------|
B|---------------------------------------------------------------------------|
G|---------------------------------------------------------------------------|
D|-4-4-x-x-x-2-2-x-x-x-5-5-x-x-x-3-3-1-1-1-----------------------------------|
A|-4-4-x-x-x-2-2-x-x-x-5-5-x-x-x-3-3-1-1-1-----------------------------------|
E|-4-4-x-x-x-2-2-x-x-x-5-5-x-x-x-3-3-1-1-1-----------------------------------|

Lead guitar does its riff a few times and then both guitars do the second riff, then the 
is the same as the second riff except palm muted. Have Fun! :)

| /  slide up
| \  slide down
| h  hammer-on
| p  pull-off
| ~  vibrato
| +  harmonic
| x  Mute note
===============================================================================
reproducciones 43
Acordes para:

    0 comentarios

    mostrar más comentarios

    ¿Conseguiste tocar?

    0 tocaron 0 aún no

    ¡Graba un vídeo tocando Lay Me Down Intro y envianoslo!

    00:00 / 00:00
    outros vídeos desta música
    repetir qualidade Automático
    Outros vídeos desta música
    00:00 / 00:00
    Automático
    OK