Cifra Club

Loaded And Alone

Hinder

Cifrado: Versão 2 (guitarra y guitarra eléctrica)
Acompaña nuestras novedades de Cifra Club en español.
¡Sigue nuestro perfil en Instagram!
tono: G
Intro:
 Em
E|------------------------------------------------------------------------------|
B|------------------------------------------------------------------------------|
G|--------------------------------------------------------------0-----0---------|
D|----------5-----5---------5-----5-----------5-----5-------------4-----4-------| (2x)
A|------------7-----7---------7-----7-----3-3---3-----3-----5-5-----5-----5-----|
E|------0-0-----0-----0-0-0-----0-----0-----------0-----0-----------------------|

( Em  C  Dsus2  D )

E|--0---0---2---2---3---3---2---2---0---0---2---2---3---3---5---5------|
B|---------------------------------------------------------------------|
G|---------------------------------------------------------------------|
D|---------------------------------------------------------------------|
A|---------------------------------------------------------------------|
E|---------------------------------------------------------------------|

Verso:
        Em
Just a kid, just a fool
        C                    Dsus2     D
Always trying to play it so cool
        Em
So he did what he knew
        C                    Dsus2     D
He left home and he dropped out of school

Ponte:
           C          D
He wanted fame, fame, fame
Em                        C             D
Even just a little bit of shame, shame, shame
Em
He would sell his soul for it
C           D     Em                          D
Changed his name, never going to get it back, no

Refrão:
         Em   C        G       D
He`s got money, but he`s way off track
     Em   C            G       D
So lonely that it makes him think back
     Em         C                 G           D         A      C         D
To his family and his friends and the lady he left back home..    he`s loaded and alone
   Em               C        Dsus2     D
He`s loaded and alone      ..yeah

Verso:
        Em
Still a kid, still a fool
        C                    Dsus2     D
Still trying to break all the rules
        Em
A big house, with too many rooms
     C               Dsus2     D
An ego, to go with it too

Ponte:
            C          D
He got his fame, fame, fame
Em                             C                D
More than just a little bit of shame, shame, shame
Em
That he sold his soul for it
C           D     Em                          D
Changed his name, never going to get it back, no

Refrão:
         Em   C        G       D
He`s got money, but he`s way off track
     Em   C            G       D
So lonely that it makes him think back
     Em         C                 G           D         A      C         D
To his family and his friends and the lady he left back home..    he`s loaded and alone

 ( Em  C  Dsus2  D )
E|--0---0---2---2---3---3---2---2---0---0---2---2---3---3---5---5------------|
B|----0---0---0---0---0---0---0---0---0---0---0---0---0---0---0---0----------|
G|---------------------------------------------------------------------------|
D|---------------------------------------------------------------------------| (2x)
A|---------------------------------------------------------------------------|
E|---------------------------------------------------------------------------|
Você também, pode tocar a intro até você encontrar o som do baixo de fundo.


Refrão:
         Em   C        G       D
He`s got money, but he`s way off track
     Em   C            G       D
So lonely that it makes him think back
     Em         C                 G           D         A
To his family and his friends and the lady he left back home..
         Em   C        G       D
He`s got money, but he`s way off track
     Em   C            G       D
So lonely that it makes him think back
     Em         C                 G           D         A      C         D
To his family and his friends and the lady he left back home..    he`s loaded and alone

Outro:
   Em               C        Dsus2     D
He`s loaded and alone
   Em               C        Dsus2     D
He`s loaded and alone      ..yeah
   Em               C        Dsus2     D
He`s loaded and alone
   Em               C        Dsus2     D
He`s loaded and alone      ..yeah
          Em            C      D Dsus2 D
He wanted fame, fame, fame
          Em            C      D Dsus2 D
And such a shame, shame, shame
          Em            C      D Dsus2 D
He got his fame, fame, fame
          Em            C      D Dsus2 D
Such a shame, shame, shame


( Em )
Composición de Austin Winkler / Brian Howes / Cody Hanson
Colaboración y revisión:
  • Gabriel Santos
7 vistas
    • ½ Tono
    • A
    • Bb
    • B
    • C
    • Db
    • D
    • Eb
    • E
    • F
    • F#
    • G
    • Ab
  • Agregar a la lista

    0 comentarios

    Ver todos los comentarios
    00:00 / 00:00
    Outros vídeos desta música
    Repetir Calidad Automático
    Outros vídeos desta música
    00:00 / 00:00
    Automático
    OK