Cifra Club

Stay the Same

Hinder

Tablatura: Principal (guitarra)
Tom: D
E |-------------------------------\
A |-6---6---6---6---4---------2---\
D |---4---4---3---3----3--3h4-4---\
G |-------------------------------\
B |-------------------------------\
E |-------------------------------\

E |-------------------------------\
A |6---6---6---6---4--------------\
D |---4---4---3---3----3--[7]-(6)-\
G |-------------------------------\
B |-------------------------------\
E |-------------------------------\

E |-------------------------------\
A |-------------------------------\
D |-------------------------------\
G |-8---8---8---8---6---6---------\
B |---7---7---6---6---6---4-------\
E |-------------------------------\

E |-------------------------------\
A |-------------------------------\
D |-------------------------------\
G |8---8---8---8---6-6h7-6--------\
B |---7---7---6---6---6-----------\
E |-------------------------------\

E |-------------------------------\
A |--6---6-6-6---6-6-6---6-6-6----\
D |--4---4-4-3---3-3-4---4-4-4----\
G |-------------------------------\
B |-------------------------------\
E |-------------------------------\

E |--------------------\
A |--------------------\
D |--4-----------------\
G |----6---------------\
B |------7-6~---4h6h4--\
E |--------------------\

E |-------------------------------\
A |--6---6-6-6---6-6-6---6-6-6----\
D |--4---4-4-3---3-3-4---4-4-4----\
G |-------------------------------\
B |-------------------------------\
E |-------------------------------\

E |-----------------\
A |-----------------\
D |--4--------------\
G |----6---6~-------\
B |------7----------\
E |-----------------\

E |----------------\
A |-6-6-6-6-6-6-6-6\
D |-8-8-8-8-8-8-8-8\
G |----------------\
B |----------------\
E |----------------\

E |----------------\
A |----------------\
D |-4-4-4-4-4-4-4-4\
B |-6-6-6-6-6-6-6-6\
B |----------------\
E |----------------\

E |----------------\
A |-4-4-4-4-4-4-4-4\
D |-6-6-6-6-6-6-6-6\
G |----------------\
B |----------------\
E |----------------\

E |----------------\
A |-6-6-6-6-6-6-6-6\
D |-8-8-8-8-8-8-8-8\
G |----------------\
B |----------------\
E |----------------\

E |-------------------------------------------\
A |-------------------------------------------\
D |-------------------------------------------\
G |-----------6~------------------------------\
B |-/4~-6h7p6-----6--666-7-7/9--7--6--4-4h6p4~\
E |-------------------------------------------\
reproducciones 35
Acordes para:
    Composição: Tateto Colaboración y revision:
    • Renan Silva

    0 comentarios

    mostrar más comentarios

    ¿Conseguiste tocar?

    0 tocaron 0 aún no

    ¡Graba un vídeo tocando Stay the Same y envianoslo!

    00:00 / 00:00
    outros vídeos desta música
    repetir qualidade Automático
    Outros vídeos desta música
    00:00 / 00:00
    Automático
    OK