Cifra Club

Wakin Up The Devil

Hinder

Cifrado: Principal (guitarra y guitarra eléctrica)
tono: A
Intro

E|-----------------|
B|-----------------|
G|--7-7-7-7-7-7----| 4x
D|--7-7-7-7-7-7----|
A|--5-5-5-5-5-5----|
E|-----------------|

(Part A)

E|--------0----------------0---------------0---------------0------------------------|
B|------3---3---3--------3---3---3-------3---3---3-------3---3---3------------------|
G|----2-------2--------2-------2-------2-------2-------2-------2--------------------| 6x
D|--0-------------------------------------------------------------------------------|
A|-------------------3---------------2---------------3------------------------------|
E|----------------------------------------------------------------------------------|

 Refrão e Solo:

(Part B)

E|---------------------------------|
B|---------------------------------|
G|--7-7-7-7-7-7------5-5-5-5-5-5---| 6x
D|--7-7-7-7-7-7------5-5-5-5-5-5---|
A|--5-5-5-5-5-5------3-3-3-3-3-3---|
E|---------------------------------|

Part A: 5x

Part B: 4x

Ponte

E|-----------------|
B|-----------------|
G|--7-7-7-7-7-7----| 4x
D|--7-7-7-7-7-7----|
A|--5-5-5-5-5-5----|
E|-----------------|

Solo

E|---------------------------------|
B|---------------------------------|
G|--7-7-7-7-7-7------5-5-5-5-5-5---| 2x
D|--7-7-7-7-7-7------5-5-5-5-5-5---|
A|--5-5-5-5-5-5------3-3-3-3-3-3---|
E|---------------------------------|

E|--------0----------------0---------------0---------------0------------------------|
B|------3---3---3--------3---3---3-------3---3---3-------3---3---3------------------|
G|----2-------2--------2-------2-------2-------2-------2-------2--------------------| 5x
D|--0-------------------------------------------------------------------------------|
A|-------------------3---------------2---------------3------------------------------|
E|----------------------------------------------------------------------------------|

E|---------------------------------|
B|---------------------------------|
G|--7-7-7-7-7-7------5-5-5-5-5-5---| 6x
D|--7-7-7-7-7-7------5-5-5-5-5-5---|
A|--5-5-5-5-5-5------3-3-3-3-3-3---|
E|---------------------------------|

E|--------0----------------0---------------0---------------0------------0-----------|
B|------3---3---3--------3---3---3-------3---3---3-------3---3---3------3-----------|
G|----2-------2--------2-------2-------2-------2-------2-------2--------2-----------| 2x
D|--0-------------------------------------------------------------------0-----------|
A|-------------------3---------------2---------------3------------------------------|
E|----------------------------------------------------------------------------------|
00:00 / 00:00
Otros videos de esta canción
Repetir
Otros videos de esta canción
Composición de Hinder
Colaboración y revisión:
  • Arnold santos
    • ½ Tono
    • A
    • Bb
    • B
    • C
    • Db
    • D
    • Eb
    • E
    • F
    • F#
    • G
    • Ab
  • Agregar a la lista

    0 comentarios

    Ver todos los comentarios
    00:00 / 00:00
    OK