Cifra Club

Basta Crer

Hinos Avulsos CCB

Tablatura: Principal (guitarra)
Tom: E (con acordes en la forma de D) Capo en 2ª casa
Introdução:

   Tempo: 120bpm
   Violão
                                                        1
E|---2-2-3-------0-0-3-2-2-3-------0-0-3-2-------------|
B|---------3-3-0-------------3-3-0---------------------|
G|-----------------------------------------------------|
D|-----------------------------------------------------|
A|-----------------------------------------------------|
E|-----------------------------------------------------|
  1


D                               Bm
A noite chegou e o sono que não vem
        A             G
Tantas provas, tantas mágoas
D                                  Bm
Alguém disse pra você que não és ninguém
  A     G   D
E fez   você chorar
A                            G
E quando você chorou e olhou pro céu
      D         A       G     D
Suas lágrimas caíram nas mãos de Deus

refrão:
D              A
Deus vai te exaltar
   G              D
E nada mas vai te abalar
D            A
não duvides, basta crer
  G       D      A
E ele te fará vencer

      D                                 Bm
                                                                    2
E|----2--2--3---------3---7--5-------------------------------------|
B|------------3-3--0-----------------------------------------------|
G|-----------------------------------------------------------------|
D|-----------------------------------------------------------------|
A|-----------------------------------------------------------------|
E|-----------------------------------------------------------------|
  2

     D                                 Bm
     A tempestade vai passar é só acreditar
         A             G
Quanta glória, quantas bençãos
D                                 Bm
O senhor vai cumprir tudo que prometeu
  A     G   D
E fará você Sorrir
A                            G
E quando vc orar vais ver o céu
     D           A        G        D
Se abrindo e os anjos da glória  descendo

refrão:
D              A
Deus vai te exaltar
   G                D
E nada mas vai te abalar
D            A
não duvides, basta crer
  G        D       A  G
E ele te fará vencer
 Bm   G    A
uhhh uuuuuu ahhh
 Bm            G
Basta crer ... Basta crer
  A       D Bm  G A
Basta crer

(Repetir do começo)
reproducciones 7
Acordes para:
    Composição: Jólison Colaboración y revision:
    • Jolison Borges

    0 comentarios

    mostrar más comentarios

    ¿Conseguiste tocar?

    0 tocaron 0 aún no

    ¡Graba un vídeo tocando Basta Crer y envianoslo!

    00:00 / 00:00
    outros vídeos desta música
    repetir qualidade Automático
    Outros vídeos desta música
    00:00 / 00:00
    Automático
    OK