Notificações Amigos pendentes

      Hinos Avulsos CCB

      Meu Socorro

      44 reproducciones
      Tono: B (con acordes en la forma de A) Capo en 2ª casa
      Intro:A E F#m Bm A E
      
      (O Hino Avulso Fica Melhor sendo tocado Com Dois Violões Para melhor desempenho do dedilhado.)
      
      
            A
      E|----------------0-0-0--------------------------------0-0-0|
      B|---0h2-0-0h2--------------------0h2-0-0h2-3h2-------------|
      G|-------------2--------------------------------4h2-2-------|
      D|----------------------------------------------------------|
      A|-0-------------------------0------------------------------|
      E|-----------------------0h2--------------------------------|
      
      
             E                      Bm             E Bm A
      E|---------X------------X-------1-X--------0------0--------|
      B|-------0-X--3-2-3-2p0-X-------3-X-3-2-0p0-0-2-2h5-2------|
      G|-------1-X------------X-------4-X------------------4h2-2-|
      D|-------2-X------------X-------4-X------------------------|
      A|-----2-2-X------------X-0h2-2-1-X-----------------------0|
      E|-0h2-----X------------X-------1-X------------------------|
      
      
      
      A    E     F#m
      Não Sei Por Que 
      A  E     F#m
      Eu Sofro Assim
      Bm  A    E
      A  Minha Fé
      Bm       A       E
      Está Chegando Ao Fim
      
      A    E   F#m
      Meu Coração
      A    E    F#m
      Tem Muita Dor
      Bm  A   E
      Ó Meu Senhor
      Bm   A      E
      Vem Diz Pra Mim
      
      (REFRÃO)
                A            E         F#m
      Quando Eu Olho Para o Céu e De Onde Me Virá 
          Bm            A       E
      O Socorro Que Eu Tanto Esperei?
             A             E
      Pois o Meu Socorro Vem
           F#m             E       Bm
      Do Senhor Que Fez Os Céus e a Terra 
       Bm     A       E                  A E F#m Bm ...
      O Universo Enfim... O Universo Enfim...
      
      
      E|------0--------|
      B|0-2-2h5-2------|
      G|---------4h2-2-|
      D|---------------|
      A|--------------0|
      E|---------------|
      
      
      A    E     F#m
      Não Sei Por Que 
      A  E     F#m
      Eu Sofro Assim
      Bm  A    E
      A  Minha Fé
      Bm       A       E
      Está Chegando Ao Fim
      
      A    E   F#m
      Meu Coração
      A    E    F#m
      Tem Muita Dor
      Bm  A   E
      Ó Meu Senhor
      Bm   A      E
      Vem Diz Pra Mim
      
      (REFRÃO)
                A            E         F#m
      Quando Eu Olho Para o Céu e De Onde Me Virá 
          Bm            A       E
      O Socorro Que Eu Tanto Esperei?
             A             E
      Pois o Meu Socorro Vem
           F#m             E       Bm
      Do Senhor Que Fez Os Céus e a Terra 
       Bm     A       E                  A E F#m Bm  ...
      O Universo Enfim... O Universo Enfim.
      
      
      
      E|------0--------|
      B|0-2-2h5-2------|
      G|---------4h2-2-|
      D|---------------|
      A|--------------0|
      E|---------------|
      
      
                    (A E F#m Bm)-Dedilhado.
      O Universo Enfim...
        Composición: Jefferson CanoColaboración y revision:
        • matheuzinhobr1

        Comentarios 0

        140 .
        140 cancelar

        ¿conseguiste tocar?

        covers

        ¡Grave un vídeo tocando Meu Socorro y envie para nosotros!

        Ex.: http://www.youtube.com/watch?v=0IvSvIwGdwk
        ver cover de otras canciones »
        0:00 / 0:00

        Capitulos

          1 versão de guitarra dificuldad reproducciones contribuición y correción
          1 versão de guitarra eléctrica dificuldad reproducciones contribuición y correción
          1 versão de cavaco dificuldad reproducciones contribuición y correción
          1 versão de teclado dificuldad reproducciones contribuición y correción
          play/pausefechar subir/bajar velocidad
          6ª cuerda E5ª cuerda A4ª cuerda D3ª cuerda G2ª cuerda B1ª cuerda E
            acordes
            publicidad
            cerrar
            ok