Cifra Club

Hino Oficial do Sport Club Corinthians Paulista

Hinos de Futebol

Cifrado: Principal (guitarra y guitarra eléctrica)
Selo Cifra Club: esta cifra foi revisada para atender aos critérios oficiais da nossa Equipe de Qualidade.
tono: C
Intro: Am  Em  B7  Em

Primeira parte:
           Em
Salve o Corinthians
                   B7
O campeão dos campeões
                                   Em
Eternamente dentro dos nossos corações
           Am
Salve o Corinthians
                        Em
De tradições e glórias mil
           B7                          Em
Tu és o orgulho dos esportistas do Brasil

Segunda parte:
                      B7
Teu passado é uma bandeira
                    Em
Teu presente uma lição
                     B7
Figuras entre os primeiros
                     Em
Do nosso esporte bretão
              Am
Corinthians grande
            Em
Sempre altaneiro
          B7                    Em
És do Brasil o clube mais brasileiro

Primeira parte:
           Em
Salve o Corinthians
                   B7
O campeão dos campeões
                                   Em
Eternamente dentro dos nossos corações
           Am
Salve o Corinthians
                        Em
De tradições e glórias mil
           B7                          Em  Am  Em
Tu és o orgulho dos esportistas do Brasil
Dedilhado:
   Am
E|-0-----0-----0-------0---0---------------|
B|-1-----1-----1-------1---1---------------|
G|-2-----2-----2-------2---2---------------|
D|-----------------------------------------|
A|-0---------------0-----------------------|
E|---------0---------------0---------------|
   Em
E|-0-----0-----0-------0---0---------------|
B|-0-----0-----0-------0---0---------------|
G|-0-----0-----0-------0---0---------------|
D|-----------------------------------------|
A|---------2---------------2---------------|
E|-0---------------0-----------------------|
   B7
E|-2-----2-----2-------2---2---------------|
B|-0-----0-----0-------0---0---------------|
G|-2-----2-----2-------2---2---------------|
D|-----------------------------------------|
A|-2---------------2-----------------------|
E|---------2---------------2---------------|
Otros videos de esta canción
    266 exhibiciones
    • Simplificar cifrado
      • ½ Tono
      • A
      • Bb
      • B
      • C
      • Db
      • D
      • Eb
      • E
      • F
      • F#
      • G
      • Ab
    • Agregar a la lista

    Afinação da cifra

    Afinador online

      Capítulos
      • Início
      • Tocando a música
      • Acordes da música
      • Tocando Introdução
      • Dicas para o ritmo padrão
      • Ensinando ritmo da Introdução
      • Tocando Primeira e Segunda Parte
      • Tocando trecho repetição - final
      • Encerramento
      Ops (: Contenido disponible solo en portugués.
      OK