Cifra Club

Hino Oficial do São Paulo Futebol Clube

Hinos de Futebol

Cifrado: Principal (guitarra y guitarra eléctrica)
Selo Cifra Club: esta cifra foi revisada para atender aos critérios oficiais da nossa Equipe de Qualidade.
tono: G
Salve o tricolor paulista

E|------------------------
B|--------5---------------
G|-5--7----7---5--------
D|-----------------7-5---5
A|------------------------
E|------------------------

Amado clube brasileiro

E|-----------------------
B|------------------------
G|---5--5-7-7-----5-4--
D|-5----------7-7--------
A|------------------------
E|------------------------

Tu és forte, tu és grande

E|------------------------
B|------------------------
G|-4--5-7-5-4-5-4----
D|------------------7-
A|------------------------
E|------------------------

Entre os grandes o primeiro

E|------------------------
B|------------------------
G|---------4-5-4------
D|-7-7-7-7-------7---5
A|------------------------
E|------------------------

Tu és forte, tu és grande

E|------------------------
B|----------5-5-----
G|--------4-6------7--
D|-7--7-7-------------------
A|------------------------
E|------------------------

Entre os grandes o primeiro

E|---------------------
B|--6-5---5--7----8-8---
G|------7------7----------
D|-------------------------
A|-------------------------
E|-------------------------

Oh tricolor, clube bem amado

E|------------------------------
B|-8-6-5---8---8--------------
G|-------7---7---7------4-----
D|------------------7-7---7-5-5
A|------------------------------
E|------------------------------

As suas glórias vem do passado

E|------------------------------
B|-5-6-5---8---8-------------
G|-------7-------7---7--------
D|------------------------------
A|------------------------------
E|------------------------------

Oh tricolor, clube bem amado

E|------------------------------
B|-8-6-5---8---8--------------
G|-------7---7---7------4-----
D|-----------------7-7---7-5-5
A|------------------------------
E|------------------------------

As suas glórias vem do passado

E|------------------------------
B|-5-6-5---8------5-----------
G|-------7------7---7--5-5
D|------------------------------
A|------------------------------
E|------------------------------

Saudações Tricolores..!!
Otros videos de esta canción
    292 exhibiciones
      • ½ Tono
      • A
      • Bb
      • B
      • C
      • Db
      • D
      • Eb
      • E
      • F
      • F#
      • G
      • Ab
    • Agregar a la lista

    Afinação da cifra

    Afinador online

      Ops (: Contenido disponible solo en portugués.
      OK