Cifra Club

Hino do Rio Grande do Sul

Hinos

Tablatura: Principal
reproducciones 609
Tono: G
[Intro]

E|----------------9-7----------------------------------------
B|---------9-10----------10-9--------------------------------
G|--9-11------------------------11-9-------------------------
D|-------------------------------------11-9------------------
A|-----------------------------------------------------------
E|-----------------------------------------------------------

E|-----------------------------------------------------------
B|-----------------------------------------------------------
G|--------6-7-9-7-----------6-7-6-----------------6--9-------
D|--7-9-------------6-7-9-----------------6-7-9---------9----
A|----------------------------------7-9----------------------
E|-----------------------------------------------------------

E|----------------9-7----------------------------------------
B|---------9-10----------10-9--------------------------------
G|--9-11------------------------11-9-------------------------
D|-------------------------------------11-9------------------
A|-----------------------------------------------------------
E|-----------------------------------------------------------

E|-----------------------------------------------------------
B|--10-9-10---------------9----------------5-----------------
G|------------11-9-9-8-9----------7-7-5-4------5-------------
D|-----------------------------------------------------------
A|-----------------------------------------------------------
E|-----------------------------------------------------------

E|---------10~~--9-7-----------------------------------------
B|--7-8-10------------10----10-7-8----7------10~~------------
G|-----------------------9---------9----7-9------------------
D|-----------------------------------------------------------
A|-----------------------------------------------------------
E|-----------------------------------------------------------

E|---------10-9-7-9/10-10--10-9-7-9-9-9-10-------------------
B|--7-8-10----------------------------------9-7--------------
G|-----------------------------------------------7-----------
D|-----------------------------------------------------------
A|-----------------------------------------------------------
E|-----------------------------------------------------------

E|-----------------------------------------------------------
B|--10-9-10-----10-7-----10-9-10-10----10-7------------------
G|------------9------7~--------------9-------7~--------------
D|-----------------------------------------------------------
A|-----------------------------------------------------------
E|-----------------------------------------------------------

E|------------------------15-12-12----------12-14------------
B|--14-14-------13-13-12-----------15-14-15-------15-12------
G|--------13-14----------------------------------------------
D|-----------------------------------------------------------
A|-----------------------------------------------------------
E|-----------------------------------------------------------

E|-15-12-12-------------------------|-------------------------|
B|-------------15---12-14-14-15-15--|-------12----12--14-15-15| 2X
G|----------------------------------|-14-14----14-------------| 
D|----------------------------------|-------------------------|
A|----------------------------------|-------------------------|
E|----------------------------------|-------------------------|

Como aurora precursora
Do farol da divindade
Foi o vinte de setembro
o precursor da liberdade

(refrão)
Mostremos valor constância
Nesta ímpia e injusta guerra
Sirvam nossas façanhas
De modelo a toda terra de modelo
A toda terra sirvam nossas façanhas de modelo a toda terra

Mas não basta para ser livre
Ser forte aguerrido e bravo
Povo que não tem virtude
Acaba por ser escravo
Acordes para:
    Colaboración y revision:

    0 comentarios

      mostrar más comentarios

      ¿Conseguiste tocar?

      17tocaron0aún no

      ¡Graba un vídeo tocando Hino do Rio Grande do Sul y envianoslo!

      00:00 / 00:00
      outros vídeos desta música
      repetirqualidadeautomática
      Outro vídeos desta música
        00:00 / 00:00
        automática
        OK