Cifra Club

Hino Nacional Brasileiro

Hinos

Cifrado: Principal (guitarra y guitarra eléctrica)
Selo Cifra Club: esta cifra foi revisada para atender aos critérios oficiais da nossa Equipe de Qualidade.
tono: F
[Intro]

Parte 1 de 4

E|---------------------------------------------------|
B|---------------------------------------------------|
G|------------------10--10-10h12p10p9h10-------------|
D|-10-10h12p10p9h10----------------------------------|
A|---------------------------------------------------|
E|---------------------------------------------------|

E|---------------------------------------------------|
B|-10-10-10h11p10p9h10-13---------------------10-----|
G|------------------------10-------10-9-12-10----12--|
D|---------------------------10-10-------------------|
A|---------------------------------------------------|
E|---------------------------------------------------|

E|---------------------------------------------------|
B|-11-10---------------------------------------------|
G|-------11-12---------------------------------------|
D|---------------------------------------------------|
A|---------------------------------------------------|
E|---------------------------------------------------|


Parte 2 de 4

E|---------------------------------------------------|
B|---------------------------------------------------|
G|-------------------12-12-12h14p12p11h12------------|
D|-12-12h14p12p11h12---------------------------------|
A|---------------------------------------------------|
E|---------------------------------------------------|

E|---------------------------------------------------|
B|-11-11-11h13p11p10h11-15---------------------------|
G|------------------------12-------------------------|
D|---------------------------------------------------|
A|---------------------------------------------------|
E|---------------------------------------------------|

E|---------------------------------------------------|
B|---------------------------------------------------|
G|-12\10-10\9-9\7-7\5-5------------------------------|
D|----------------------8--6--7----------------------|
A|---------------------------------------------------|
E|---------------------------------------------------|

Parte 3 de 4

E|---------------------------------------------------|
B|---------------------------------------10----------|
G|-------------------10-10-10h12p10p9h10-------------|
D|-10-10h12p10p9h10----------------------------------|
A|---------------------------------------------------|
E|---------------------------------------------------|

E|---------------------------------------------------|
B|---------------------------------------------------|
G|-10-10h12p10p9h10----------------------------------|
D|------------------12-------------------------------|
A|---------------------------------------------------|
E|---------------------------------------------------|

E|---------------------------------------------------|
B|-------------------11------------------------------|
G|-12-12h14p12p11h12----12-12h14p12p11h12------------|
D|----------------------------------------14---------|
A|---------------------------------------------------|
E|---------------------------------------------------|

E|---------------------------------------------------|
B|-------------------13------------------------------|
G|-14-14h15p14p13h14----14-14h15p14p13h14------------|
D|----------------------------------------15---------|
A|---------------------------------------------------|
E|---------------------------------------------------|

E|---------------------------------------------------|
B|---------------------------------------------------|
G|-15-15h17p15p14h15----17-17h19p17p16h17------------|
D|-------------------17-------------------19---------|
A|---------------------------------------------------|
E|---------------------------------------------------|

Parte 4 de 4

E|---------------------------------------------------|
B|-18-17-15-13-17-18---------------------------------|
G|---------------------------------------------------|
D|---------------------------------------------------|
A|---------------------------------------------------|
E|---------------------------------------------------|

[Primeira Parte]

Parte 1 de 2

E|---------------------------------------------------|
B|---------------10----10-11-12-13p10----------------|
G|----10-9-10-12----12----------------10-------------|
D|-10------------------------------------------------|
A|---------------------------------------------------|
E|---------------------------------------------------|

E|---------------------------------------------------|
B|---------------10----11p10-------------------------|
G|----10-9-12-10----12-------11-12-------------------|
D|-10------------------------------------------------|
A|---------------------------------------------------|
E|---------------------------------------------------|

Parte 2 de 2

E|---------------------------------------------------|
B|----------------11----11-13-14-15p11---------------|
G|----12-11-12-14----14----------------12------------|
D|-10------------------------------------------------|
A|---------------------------------------------------|
E|---------------------------------------------------|

E|---------------------------------------------------|
B|----------------11----13-11------------------------|
G|----12-11-14-12----14-------13-14------------------|
D|-10------------------------------------------------|
A|---------------------------------------------------|
E|---------------------------------------------------|

[Segunda Parte]

Parte 1 de 3

E|---------------------------------------------------|
B|----------------------------15--13p11-11p10-10-----|
G|-14-14-14h15-14-14-15-14-14--------------------12--|
D|---------------------------------------------------|
A|---------------------------------------------------|
E|---------------------------------------------------|

E|---------------------------------------------------|
B|---------------------------------------------------|
G|-12p10-10p9-9--------------------------------------|
D|--------------12-----------------------------------|
A|---------------------------------------------------|
E|---------------------------------------------------|

Parte 2 de 3

E|---------------------------------------------------|
B|----------------------------13-12p10-10p8----------|
G|-12-12-12h14-12-12-14-12-12---------------10-10p9--|
D|---------------------------------------------------|
A|---------------------------------------------------|
E|---------------------------------------------------|

E|---------------------------------------------------|
B|---------------------------------------------------|
G|-9-------------------------------------------------|
D|---12-12-10----------------------------------------|
A|---------------------------------------------------|
E|---------------------------------------------------|

Parte 3 de 3

E|---------------------------------------------------|
B|---------11---------11---------11-11---------------|
G|----9-12-------9-12-------9-12-------12-9----------|
D|-10---------10---------10-----------------10-------|
A|---------------------------------------------------|
E|---------------------------------------------------|

[Terceira Parte]

Parte 1 de 2

E|---------------------------------------------------|
B|-----------------------------11--------------------|
G|-10-12p10-9h10-9h10-12p10-10-----------------------|
D|---------------------------------------------------|
A|---------------------------------------------------|
E|---------------------------------------------------|

E|---------------------------------------------------|
B|-------------------------------13------------------|
G|-12-14p12-11h12-11h12-14p12-12---------------------|
D|---------------------------------------------------|
A|---------------------------------------------------|
E|---------------------------------------------------|

E|-----------------------------10--------------------|
B|-10-11p10-9h10-9h10-11p10-10----13-11--------------|
G|--------------------------------------12-12-10-----|
D|---------------------------------------------------|
A|---------------------------------------------------|
E|---------------------------------------------------|

Parte 2 de 2

E|---------------------------------------------------|
B|---------11p10------------11-----------------------|
G|-9-10-12-------9h10----------12-12-10--------------|
D|--------------------11h12--------------------------|
A|---------------------------------------------------|
E|---------------------------------------------------|

E|---------------------------------------------------|
B|----10-11-12h13--10-------11-10--------------------|
G|-12-----------------10----------10----------9-10---|
D|-----------------------12----------12-10-12--------|
A|---------------------------------------------------|
E|---------------------------------------------------|

[Cadência Final]

E|-13-------------------13-17------------------------|
B|----13-------------13------------------------------|
G|-------14-------14---------------------------------|
D|----------15-15--------------3---------------------|
A|-----------------------------3---------------------|
E|-----------------------------1---------------------|
Otros videos de esta canción
    2.144 exhibiciones
      • ½ Tono
      • A
      • Bb
      • B
      • C
      • Db
      • D
      • Eb
      • E
      • F
      • F#
      • G
      • Ab
    • Agregar a la lista

    Afinação da cifra

    Afinador online

      Ops (: Contenido disponible solo en portugués.
      OK