Cifra Club

South

Hippo Campus

Cifrado: Principal (guitarra y guitarra eléctrica)
Acompaña nuestras novedades de Cifra Club en español.
¡Sigue nuestro perfil en Instagram!
tono: Db
[Intro]
  
Guitarra 1
E|---------------------------------------------------------------------------|
B|---------------------------------------------------------------------------|
G|---------------------------------------------------------------------------|
D|-------------------------------------6-------------------------------------|
A|--6-8-6--------------------------6-8---8--4-4-4-4...-----------------------|
E|--------8--4-4-4-4...------------------------------------------------------|

Guitarra 2
E|---------------------------------------------------------------------------|
B|---------------------------------------------------------------------------|
G|--13---10---8---5---5b----------------13----10---15---17---17b-------------|
D|--x----x----x---x---x------------------x----x-----x----x----x--------------|
A|--11---8----6---3---3b----------------11----8----13---15---15b-------------|
E|---------------------------------------------------------------------------|

[Verso]
Guitarra 1
E|---------------------------------------------------------------------------|
B|---------------------------------------------------------------------------|
G|---------------------------------------------------------------------------|
D|---------------------------------------------------------------------------|
A|----------------------------4-4-4-4----------------------------------------|
E|--------4-4-4-4------------------------------------------------------------|

Guitarra 2
             Cm         Ab
E|----------15---------16-------------20-20-16-------------------16----------|
B|----------16---------16----------------------18-16----16----16-------------|
G|----------17---------17----------------------------17----17----------------|
D|---------------------------------------------------------------------------|
A|---------------------------------------------------------------------------|
E|---------------------------------------------------------------------------|

[Refrão]

Guitarra 1
             G#Maj7              C#Maj7
E|-----------11-------------------4------------------------------------------|
B|-----------13-------------------6------------------------------------------|
G|-----------12-------------------5------------------------------------------|
D|-----------13-------------------6------------------------------------------|
A|-----------11-------------------4------------------------------------------|
E|---------------------------------------------------------------------------|

Guitarra 2
E|---------------------------------------------------------------------------|
B|------------------------------------------------16-16-16-16----------------|
G|-----15-17-13-13------------15-17-13-13---------------------17-15-13-------|
D|--13---------------X4----15-------------X3---15----------------------------|
A|---------------------------------------------------------------------------|
E|---------------------------------------------------------------------------|

Guitarra 1
E|---------------------------------------------------------------------------|
B|---------------------------------------------------------------------------|
G|---------------------------------------------------------------------------|
D|-------------------------------------6-------------------------------------|
A|--6-8-6--------------------------6-8---8--4-4-4-4...-----------------------|
E|--------8--4-4-4-4...------------------------------------------------------|

Guitarra 2
E|---------------------------------------------------------------------------|
B|---------------------------------------------------------------------------|
G|--13---10---8---5---5b----------------13----10---15---17---17b-------------|
D|--x----x----x---x---x------------------x----x-----x----x----x--------------|
A|--11---8----6---3---3b----------------11----8----13---15---15b-------------|
E|---------------------------------------------------------------------------|

[Verso]

Guitarra 1
E|---------------------------------------------------------------------------|
B|---------------------------------------------------------------------------|
G|---------------------------------------------------------------------------|
D|---------------------------------------------------------------------------|
A|----------------------------4-4-4-4----------------------------------------|
E|--------4-4-4-4------------------------------------------------------------|

Guitarra 2
             Cm         Ab
E|----------15---------16-------------20-20-16-------------------16----------|
B|----------16---------16----------------------18-16----16----16-------------|
G|----------17---------17----------------------------17----17----------------|
D|---------------------------------------------------------------------------|
A|---------------------------------------------------------------------------|
E|---------------------------------------------------------------------------|

[Ponte]

Guitarra 1
                G#Maj7               C#Maj7
E|-------------------------------------4-------------------------------------|
B|---------------4---------------------6-------------------------------------|
G|---------------5---------------------5-------------------------------------|
D|---------------5---------------------6-------------------------------------|
A|-------------------------------------4-------------------------------------|
E|---------------4-----------------------------------------------------------|

Guitarra 2
E|--------------------------------------(4)----------------------------------|
B|----4--------4-----------------4-------------------------------------------|
G|------5--------5------------5-------5--------------------------------------|
D|--------5--------5-------6-------6-----------------------------------------|
A|---------------------------------------------------------------------------|
E|---------------------------------------------------------------------------|
Compositor não encontrado.
Colaboración y revisión:
  • Laura Ferre
23 vistas
    • ½ Tono
    • A
    • Bb
    • B
    • C
    • Db
    • D
    • Eb
    • E
    • F
    • F#
    • G
    • Ab
  • Agregar a la lista

    0 comentarios

    Ver todos los comentarios

    ¿Lograste tocar?

    0 Tocaron 0 Aún no

    ¡Graba un video tocando South y envíanoslo!

    00:00 / 00:00
    Outros vídeos desta música
    Repetir Calidad Automático
    Outros vídeos desta música
    00:00 / 00:00
    Automático
    OK