Cifra Club

Violet

Hippo Campus

Cifrado: Principal (guitarra y guitarra eléctrica)
tono: E
[Intro]

E|--x----x-----x-----x----x---x----x----x----x-----x----|
B|--7----x-----x-----x----x---x----x----x----x-----x----|
G|--8---18----13----11---13---11--13---16---18----13----|
D|--6----x-----x-----x----x---x----x----x----x-----x----|
A|--7---16----11-----9---11---9---11---14---16----11----|
E|--x----x-----x-----x----x---x----x----x----x-----x----|

[Verse 1]

E|--4----4----4----5-------------------|
B|--5----4----5----5-------------------|
G|--4----4----6----6-------------------|
D|--6----6----6----7-------------------|
A|--7----6----4----7-------------------|
E|--4----4----4----5-------------------|                                               

[Guitar 2]

E|----------------------------------------------------------------------------------|
B|----------------------------------------------------------------------------------|
G|----------------------------------------------------------------------------------|
D|--------------------9------------repeat x4------------------4---------------------| 
A|---9---11---11--11-----11---11----------------4---7---7---7-----7---7-------------|
E|----------------------------------------------------------------------------------|

[Pre-Chorus]

E|---7-----4-----5----------------------|
B|---7-----5-----5----------------------|
G|---8-----6-----6----------------------|
D|---9-----6-----7----------------------|
A|---9-----4-----7----------------------|
E|---7-----4-----5----------------------|

[Chorus]

E|--x----x----x----x----x---x----x----x----x-----x----|
B|--7----x----x----x----x---x----x----x----x-----x----|
G|--8---18---13---11---13---11--13---16---18----13----|
D|--6----x----x----x----x---x----x----x----x-----x----|
A|--7---16---11----9---11---9---11---14---16----11----|
E|--x----x----x----x----x---x----x----x----x-----x----|

[Verse 1]

E|--4----4----4----5-------------------|
B|--5----4----5----5-------------------|
G|--4----4----6----6-------------------|
D|--6----6----6----7-------------------|
A|--7----6----4----7-------------------|
E|--4----4----4----5-------------------|                                               

[Guitar 2]

E|----------------------------------------------------------------------------------|
B|----------------------------------------------------------------------------------|
G|----------------------------------------------------------------------------------|
D|--------------------9------------repeat x4------------------4---------------------| 
A|---9---11---11--11-----11---11----------------4---7---7---7-----7---7-------------|
E|----------------------------------------------------------------------------------|

[Pre-Chorus]

E|---7-----4-----5----------------------|
B|---7-----5-----5----------------------|
G|---8-----6-----6----------------------|
D|---9-----6-----7----------------------|
A|---9-----4-----7----------------------|
E|---7-----4-----5----------------------|

[Chorus]

E|-x---x----x----x----x---x----x----x----x-----x-------------------------------------|
B|-7---x----x----x----x---x----x----x----x-----x-------------------------------------|
G|-7--18---13---11---13--11---13---16---18----13-----8^----------------8^------------|
D|-6---x----x----x----x---x----x----x----x-----x--6-----6--2--4--6--4-----6--2--4--6-|
A|-7--16---11----9---11---9---11---14---16----11-------------------------------------|
E|-x---x----x----x----x---x----x----x----x-----x-------------------------------------|

E|----x-----x-----x-----x----x----x----x----x----x---|
B|----x-----x-----x-----x----x----x----x----x----x---|
G|---13----16----18----16---13---16---18---16---13---|
D|----x-----x-----x-----x----x----x----x----x----x---|
A|---11----14----16----14---11---14---16---14---11---|
E|----x-----x-----x-----x----x----x----x----x----x---|

[Outro]

E|----------------------------------------------------|
B|----------------------------------------------------|
G|----------------------------------------------------|
D|--16---18---16---14---11---14---11------------------|
A|------------------------------------14---12---11----|
E|----------------------------------------------------|

E|------------------19------------------19------------|
B|---16---19---16--------16---19---16--------16-------|
G|----------------------------------------------------|
D|----------------------------------------------------|
A|----------------------------------------------------|
E|----------------------------------------------------|
Composición de Jake Luppen
Colaboración y revisión:
  • Laura Ferre
34 vistas
    • ½ Tono
    • A
    • Bb
    • B
    • C
    • Db
    • D
    • Eb
    • E
    • F
    • F#
    • G
    • Ab
  • Agregar a la lista

    0 comentarios

    Ver todos los comentarios

    ¿Lograste tocar?

    0 Tocaron 0 Aún no

    ¡Graba un video tocando Violet y envíanoslo!

    00:00 / 00:00
    Outros vídeos desta música
    Repetir Calidad Automático
    Outros vídeos desta música
    00:00 / 00:00
    Automático
    OK