Cifra Club

Speakers Blown

Hit The Lights

Cifrado: Principal (guitarra y guitarra eléctrica)
tono: G
I didn't put the chords as many times as they are played, so all you need to do is find 
strumming pattern...have fun with this tab.

The tuning for this tab is D flat...this is a pretty sweet song and if you don't have to 
go and get it!! It is a MUST HAVE!!!

. = palm mute

Intro

|----------------------------------------------------------|
|----------------------------------------------------------|
|-5--------------------------------------------------------|
|-5-3-----------7-7--5-5--3-3-3-3-3-3----------------------|
|-3-3-(mult. x)-7-7--5-5--3-3-3-3-3-3----------------------|
|---3-----------7-7--5-5--3-3-3-3-3-3----------------------|
 .....

Verse I

|----------------------------------------------------------|
|----------------------------------------------------------|
|-5---------5----------------------------------------------|
|-5-3-7-3---3-3-7-3----5-5--5-7-3--5-5--7-7--3-------------|
|-3-3-7-3---3-3-7-3----5-5--5-7-3--5-5--7-7--3-------------|
|---3-7-3-----3-7-3----5-5--5-7-3--5-5--7-7--3-------------|
 ........

Chorus

|----------------------------------------------------------|
|----------------------------------------------------------|
|-5-----------5--------------------------------------------|
|-5-3-0-2-3---5-3-0-2-3------------------------------------|
|-3-3-0-2-3---3-3-0-2-3------------------------------------|
|---3-0-2-3-----3-0-2-3------------------------------------|

Verse II

|----------------------------------------------------------|
|----------------------------------------------------------|
|---5------------------------------------------------------|
|---3-3-7-3-(2x)-5-5--5-7-3--5-5--7-7--3-------------------|
|---3-3-7-3------5-5--5-7-3--5-5--7-7--3-------------------|
|-----3-7-3------5-5--5-7-3--5-5--7-7--3-------------------|

Chorus

|----------------------------------------------------------|
|----------------------------------------------------------|
|-5-----------5--------------------------------------------|
|-5-3-0-2-3---5-3-0-2-3------------------------------------|
|-3-3-0-2-3---3-3-0-2-3------------------------------------|
|---3-0-2-3-----3-0-2-3------------------------------------|

"Breakdown"

|----------------------------------------------------------|
|----------------------------------------------------------|
|----------------------------------------------------------|
|-0-3-5-7------0-3-5-7-3-----------------------------------|
|-0-3-5-7------0-3-5-7-3-----------------------------------|
|-0-3-5-7------0-3-5-7-3-----------------------------------|

|----------------------------------------------------------|
|----------------------------------------------------------|
|-5--------------------------------------------------------|
|-5-3-----------7-7--5-5--3-3-3-3-3-3----------------------|
|-3-3-(mult. x)-7-7--5-5--3-3-3-3-3-3----------------------|
|---3-----------7-7--5-5--3-3-3-3-3-3----------------------|
 .....

Solo

|-----------------------------------------------------------------|
|---------------------------------------8-------------------------|
|------9-9-7-7-9-9-----9-7--9-77-99-9-7---9--7-7-99-10-9-7-9-7----|
|-10-10-----------10-10---10---------------10------------------10-|
|-----------------------------------------------------------------|
|-----------------------------------------------------------------|

Chorus

|----------------------------------------------------------|
|----------------------------------------------------------|
|-5-----------5--------------------------------------------|
|-5-3-0-2-3---5-3-0-2-3------------------------------------|
|-3-3-0-2-3---3-3-0-2-3------------------------------------|
|---3-0-2-3-----3-0-2-3------------------------------------|

End

|----------------------------------------------------------|
|----------------------------------------------------------|
|----------------------------------------------------------|
|-3--5--7--------------------------------------------------|
|-3--5--7--------------------------------------------------|
|-3--5--7--------------------------------------------------|
00:00 / 00:00
Otros videos de esta canción
Repetir
Otros videos de esta canción
Composición de Hit the Lights
13 exhibiciones
    • ½ Tono
    • A
    • Bb
    • B
    • C
    • Db
    • D
    • Eb
    • E
    • F
    • F#
    • G
    • Ab
  • Agregar a la lista
    00:00 / 00:00
    OK