Cifra Club

Until We Get Caught Intro

Hit The Lights

Cifrado: Principal (guitarra y guitarra eléctrica)
tono: G
Intro 

|--------------------------------|
|--------------------------------|
|------------------10------------|
|-77-8--7-8--7-8-9---------------|
|--------------------------------|
|--------------------------------|

|--------------------------------|
|--------------------------------|
|------------------10------------|
|-77-8--7-8--7-8-9---------------|
|--------------------------------|
|--------------------------------|

|--------------------------------|
|--------------------------------|
|------------------10------------|
|-77-8--7-8--7-8-9---------------|
|--------------------------------|
|--------------------------------|

Thats All i know of it.. Very easy. So enjoy

Laterr
00:00 / 00:00
Otros videos de esta canción
Repetir
Otros videos de esta canción
Compositor no encontrado.
8 exhibiciones
    • ½ Tono
    • A
    • Bb
    • B
    • C
    • Db
    • D
    • Eb
    • E
    • F
    • F#
    • G
    • Ab
  • Agregar a la lista
    00:00 / 00:00
    OK