Cifra Club

Until We Get Caught

Hit The Lights

Cifrado: Principal (guitarra y guitarra eléctrica)
tono: C
h = hammer on
intro

Kinda' bend the first two 4's
|--------------------------------|   \      /
|--------------------------------|    \    /
|-0-4h---0-4h---0-4h5-6----------|     \  /
|--------------------------------|      \/ 3
|--------------------------------|      /\
|--------------------------------|     /  \
                                      /    \
                                     /      \
Then the last time repeating that ^ do this

|------------------------------------|
|------------------------------------|
|----------------9-9-----------------|
|-9-9--8-8--9-9--9-9---9-9-9--10-----|
|-9-9--8-8--9-9--7-7---9-9-9--10-----|
|-7-7--6-6--7-7--------7-7-7--8------|

exactly before the verse ^

I think this is right. i did it by ear so its not perfect.
00:00 / 00:00
Otros videos de esta canción
Repetir
Otros videos de esta canción
Composición de Hit the Lights
13 exhibiciones
    • ½ Tono
    • A
    • Bb
    • B
    • C
    • Db
    • D
    • Eb
    • E
    • F
    • F#
    • G
    • Ab
  • Agregar a la lista
    00:00 / 00:00
    OK