Cifra Club

Pros que estão em casa

Hojerizah

Tablatura: Tablatura
reproducciones 12
Tono: E
Intro:
E|-------------------------------------10------|
B|---8-7-8-10-8-7-7s8-7-----8-7-8-10-8---8-----|
G|--9------------------9-7-9----------9---9-7-9|
D|---------------------------------------------|
A|-7-------------------------------------------|
E|---------------------------------------------|

E|-------------------------------------10------|
B|---8-7-8-10-8-7-7s8-7-----8-7-8-10-8---8-----|
G|--9------------------9-7-9----------9---9-7-9|
D|---------------------------------------------|
A|---------------------------------------------|
E|---------------------------------------------|

E|-------------------------------------10------|
B|---8-7-8-10-8-7-7s8-7-----8-7-8-10-8---8-----|
G|--9------------------9-7-9----------9---9-7--|
D|---------------------------------------------|
A|---------------------------------------------|
E|---------------------------------------------|

E|-12----12----12--11----12-11-----------------|
B|---10----10----10--10--------10--------------|
G|-----11----11--------11--------11------------|
D|---------------------------------------------|
A|---------------------------------------------|
E|---------------------------------------------|

E|---10--10-9--10------------------------------|
B|--8--8---8-8----8----------------------------|
G|-9----9-----9----9-7-9-----------------------|
D|---------------------------------------------|
A|---------------------------------------------|
E|---------------------------------------------|

E|----7--------9--------10--9--10--------------|
B|--8--8-----8--8-----8---8--8---8-------------|
G|-9-9--9-7-9-9--9-7-9-9---9--9---9-7-9--------|
D|---------------------------------------------|
A|---------------------------------------------|
E|---------------------------------------------|

E|----7--------9--------10--9---9--------------|
B|--8--8-----8--8-----8---8--8---8-------------|
G|-9-9--9-7-9-9--9-7-9-9---9--9---9------------|
D|---------------------------------------------|
A|---------------------------------------------|
E|---------------------------------------------|

Verso

E|-------------------7--4---9-7-------------------7-------|
B|----7------7-----5--5--5-----9-7----7-----7------7----7-|
G|--9--9---8--8---6-6--6--6---------9--9--8--8--9-----8--8|
D|-9-9--9-9-9--9-------------------9-9---9-9---9-9---9-9--|
A|--------------------------------------------------------|
E|--------------------------------------------------------|

Refrão

E|------------------------------------9--7--9p7---|
B|----------------------------------9--9-------9p7|
G|-9-9-9-8-8-8-9-9-9-8-8-8-9-9-8-8-6-6--6---------|
D|------------------------------------------------|  (2x)
A|------------------------------------------------|
E|------------------------------------------------|

E|------------------------------------9-9-9-7-7-7-7
B|----------------------------------9--------------
G|-9-9-9-8-8-8-9-9-9-8-8-8-9-9-8-8-6-6-------------
D|-------------------------------------------------  (2x)
A|-------------------------------------------------
E|-------------------------------------------------

Final
E|-------------------|
B|-------------------|
G|-9-8-9-8-9-8-9-8...|
D|-------------------|
A|-------------------|
E|-------------------|

Eu achei essa base legal

E      B/Eb
Até bem cedo
C#              G#
Esperei pelo telefonema
A          G#
Tapando com peneira
A         B
O sol que vai nascendo
E              B/Eb
Não vou tomar café,
C#            G#
Nem escovar os dentes
A          G#
Vou de aguardente
A           B
Como sol que queima a praça
E         B/Eb
Bom dia, Boa tarde
C#             G#
Good Night Quero dar um tapa
A            E/G#
De topete e cara
A             B
Vi Nova York Internada
E             B/Eb
Meu amor não deu em nada
C#                G#
Minhas sombrancelhas eriçadas
A                G#
E a essa altura do fato
A               B
Nem fumaça tem cano de descarga

( E  B/Eb  B )
oooooooooooooooo

Acordes para:
    Colaboración y revision:
    • Rodrigo Carvalho

    0 comentarios

      mostrar más comentarios

      ¿Conseguiste tocar?

      0tocaron0aún no

      ¡Graba un vídeo tocando Pros que estão em casa y envianoslo!

      00:00 / 00:00
      outros vídeos desta música
      repetirqualidadeautomática
      Outro vídeos desta música
        00:00 / 00:00
        automática
        OK