Cifra Club

Berry

Hole

Cifrado: Principal (guitarra y guitarra eléctrica)
tono: D
Verse: 
e|-------------------   ------------------
B|-------------------   ------------------              
G|-------------------   ------------------              
D|-7b--2--7--2--7--2- 6x        -2-2-2-2-2-2-2--9-      3x
A|-7b--2--7--2--7--2-   -2-2-2-2-2-2-2--9-              
E|-5b--0--5--0--5--0-   -0-0-0-0-0-0-0--7-      

-----------------------
-----------------------
-----------------------  1x
-2-2-2-2-2-2-2--4--5-5-
-2-2-2-2-2-2-2--4--5-5-
-0-0-0-0-0-0-0--2--3-3- 

Chorus: 2x
e|---------------------------------
B|---------------------------------
G|---------------------------------
D|-7--7--7--7-7--5-5--2--2---5-7-5-
A|-7--7--7--7-7--5-5--2--2---5-7-5-
E|-5--5--5--5-5--3-3--0--0---3-5-3-

play the verse 1x

Riff 1: 4x
e|---------------------
B|---------------------
G|---------------------
D|-2-2-2-2-2--4-4-4--5-
A|-2-2-2-2-2--4-4-4--5-
e|-0-0-0-0-0--2-2-2--3-

verse 1x
riff 1 4x
chorus 4x
Composición de Hole
Colaboración y revisión:
  • Élison Duarte
33 vistas
    • ½ Tono
    • A
    • Bb
    • B
    • C
    • Db
    • D
    • Eb
    • E
    • F
    • F#
    • G
    • Ab
  • Agregar a la lista

    0 comentarios

    Ver todos los comentarios

    ¿Lograste tocar?

    0 Tocaron 0 Aún no

    ¡Graba un video tocando Berry y envíanoslo!

    00:00 / 00:00
    Otros videos de esta canción
    Repetir Calidad Automático
    Otros videos de esta canción
    00:00 / 00:00
    Automático
    OK