Cifra Club

Celebrity Skin

Hole

Tab de bajo: Principal
|-----------------------------
|-----------------------------
|------4-4--------------------
|--5-5-----2-2---2-2-0-2-0-2--

|-----------------------
|-----------------------
|----------5-5-5-5-5-5--
|--5-5-5--5-------------      Refrão

|--------------------------
|--------------------------
|---------5-5-5-5----------
|-5-5-5-5---------2-2-2-2--   Ponte



_______________________________________________________
Contribuição: Helo(helo_p@msn.com)
Composición de Billy Corgan / Courtney Love / Eric Erlandson
55 vistas

0 comentarios

Ver todos los comentarios

¿Lograste tocar?

2 Tocaron 0 Aún no

¡Graba un video tocando Celebrity Skin y envíanoslo!

00:00 / 00:00
Otros videos de esta canción
Repetir Calidad Automático
Otros videos de esta canción
00:00 / 00:00
Automático
OK