Cifra Club

Gold Dust Woman

Hole

Cifrado: Principal (guitarra y guitarra eléctrica)
tono: G
by Fleetwood Mac

Bass Intro:
E|--0-0-0-1/3-3-3-3-| (3x) 

E|--0-0-0-0-2-0-1-0-|

Riff 1: (distortion)
e|-------------------------------|
B|-------------------------------|
G|------0---4--4--6-7-7-----0----|
D|------2---4--4--6-7-7-----2----|
A|------2---2--2--4-5-5-----2----|
E|--0-0-0---------------0-0-0----|

Chrous: (distortion)
e|---------------------------------------------------------------|
B|---------------------------------------------------------------|
G|--------------------------------5-5-5-5-5-5-5--7-7-7-7-7-7-7---|
D|--7-7-7-7-7-7-7--5-5-5-5-5-5-5--5-5-5-5-5-5-5--7-7-7-7-7-7-7---|
A|--7-7-7-7-7-7-7--5-5-5-5-5-5-5--3-3-3-3-3-3-3--5-5-5-5-5-5-5---|
E|--5-5-5-5-5-5-5--3-3-3-3-3-3-3---------------------------------|

(Bass Intro)

D                   G    C                 G               (riff 1)
rock on gold dust woman take your silver spoon dig your grave.
D              G      C         G             D   (riff 1)
 one less challenge pick your path and I'll pray.
D                G       C         G                     (riff 1)
wake up in the morning see your sunrise burnin' to go down.
D         G      C                           G              (riff 1)
 lousy lovers pick their graves but they'll never cry out loud.

Chrous:
Did she make you cry, make you break down? Shatter your illusions of love?

Is it over now? Do you know how, to pick up the pieces and go home?

D                   G     C                G              (riff 1)
rock on gold dust woman follow those who pale in your shadow.
D                G          C                G              (riff 1)
rulers make bad lovers you better put your kingdom up for sale.

D7 Am D7 Am D7 Am D7 Am 
gold     dust     woman
00:00 / 00:00
Otros videos de esta canción
Repetir
Otros videos de esta canción
Composición de Stevie Nicks
74 exhibiciones
    • ½ Tono
    • A
    • Bb
    • B
    • C
    • Db
    • D
    • Eb
    • E
    • F
    • F#
    • G
    • Ab
  • Agregar a la lista
    00:00 / 00:00
    OK