Cifra Club

Devuelveme A Mi Chica

Hombres G

Cifrado: Principal (guitarra y guitarra eléctrica)
Já pensou em usar uma coleção de roupas do Cifra Club? Responda as perguntas abaixo e nos ajude nessa missão! →
tono: F
|Intro| C#m  G#m  C#m  G#m  

C#m                         G#m
Estoy llorando en mi habitación
C#m                         G#m
Todo se nubla a mi alrededor
G#m Gm F#m                  C#m
Ella se fue con un niño pijo
G#m Gm F#m
Tiene un ford fiesta blanco
G#m
Y un jersey amarillo

C#m                         G#m
Por el parque los veo pasar
C#m                         G#m
Cuando se besan lo paso fatal
F#m                     C#m
Voy a vengarme de ese marica
F#m
Voy a llenarle el cuello
G#m
De polvos pica pica

[Refrão]

A        E
Sufre, mamón
A              E
Devuélveme a mi chica
A              E
O te retorcerás
      F#m         Bsus2   Csus2
Entre polvos pica-pica 

( C#m  G#m  C#m  G#m )
( F#m  G#m  C#m  G#m )

|Solo|

 C#m              G#m
E|10-10------------------------------|
B|------10---------------------------|
G|---------10---12-10-12-10-12/14-14-|
D|-----------------------------------|
A|-----------------------------------|
E|-----------------------------------|

 C#m                     G#m            G#m Gm F#m
E|10-10-13-10--------------------------------------|
B|10-10-10-10-------------10-10-13-10---10---9---8-|
G|------------10-12-10-12-10-10-10-10---10---9---7-|
D|-------------------------------------------------|
A|-------------------------------------------------|
E|-------------------------------------------------|

 G#m            C#m            G#m
E|---------------10---------------------|
B|--8---------------10----------8-------|
G|7---7--------10------10-7---7---7-----|
D|------8-5-------------------------8-5-|
A|--------------------------------------|
E|--------------------------------------|

 G#m
E|-------------------8/9/10-8-10-13-10-|
B|------------8/9/10-------------------|
G|------7/8/9--------------------------|
D|5/6/7--------------------------------|
A|-------------------------------------|
E|-------------------------------------|

C#m                G#m
 Le quemamos su jersey
C#m                      G#m
 Se ha comprado cinco o seis
G#m Gm F#m                G#m
 Voy a destrozarle el coche
F#m
 Lo tengo preparado
G#m
 Voy esta noche

C#m                          G#m
 No te reirás nunca más de mi
C#m                       G#m
 Lo siento nene vas a morir
G#m Gm F#m                     G#m
 Hoy me quitaste lo que más quería
F#m
 Y volverá conmigo
G#m
 Volverá algún día
Composición de David Summers
Colaboración y revisión:
  • Señor Warner
  • Brandon Campos
15.012 vistas
    • ½ Tono
    • A
    • Bb
    • B
    • C
    • Db
    • D
    • Eb
    • E
    • F
    • F#
    • G
    • Ab
  • Agregar a la lista

    0 comentarios

    Ver todos los comentarios

    ¿Lograste tocar?

    9 Tocaron 2 Aún no

    ¡Graba un video tocando Devuelveme A Mi Chica y envíanoslo!

    00:00 / 00:00
    Outros vídeos desta música
    Repetir Calidad Automático
    Outros vídeos desta música
    00:00 / 00:00
    Automático
    OK