Cifra Club

Hoy Es Mi Cumpleanos

Hombres G

Cifrado: Principal (guitarra y guitarra eléctrica)
Já pensou em usar uma coleção de roupas do Cifra Club? Responda as perguntas abaixo e nos ajude nessa missão! →
tono: G
Transcrito por: Carlos Ramirez
Afinacion: EADGBe

he dado la introduccion lo mas preciso posible junto con el verso, pero en realidad Rafa
utiliza en el resto de la cancion diferentes formas de darle mas color a sus acordes,asi
que es cuestion de experimentar un poco ...

Intro:
e|-----------------0------------------|
B|----3---3-------------3-------------|
G|----0-------------0---0-------------|
D|----4-4--4-4---4----4-4--4----------|
A|----2-2----3--------2----3----------|
E|------------------------------------|

verso:
e|------------------------------------------------------------------------|
B|----3-----------------3-------------------------------3---------3-------|
G|----0-----------------------------------------------------------0-------|
D|----4---------------4--4-----4-----------------------4--4----4--4-------|
A|----2------------------------3-------------------------------2----------|
E|------------------------------------------------------------------------|
  hoy es mi cumpleanos      estoy sentado afuera junto a la pared
  hay una chimenea          y algunas tazas      de    cafe


e|----5------------5/7-------|
B|--3---3-----3--------------|
G|--0------------------------| (repetir)
D|---------------------------|
A|---------2-----------------|
E|---------------------------|

e|----3--------------------2------------------3----------2-----------------|
B|----1--------------------1------------------3----------4-----------------|
G|----0--------------------0------------------0----------2-----------------|
D|----2--------------------1------------------0----------4-----------------|
A|----0--------------------0------------------2----------2-----------------|
E|----x--------------------x------------------3----------x-----------------|
   el aire mueve el alma   de mi soledad y algunas hojas secas

e|------------0-------------------6--------------------------5------------|
B|------------1-------------------4--------------------------3------------|
G|------------0-------------------0--------------------------0------------|
D|------------2-------------------5--------------------------4------------|
A|------------3-------------------0--------------------------2------------|
E|------------x-------------------x---------------------------------------|
  que hacen ruido al resbalar veo que unos ninos juegan al billar

   intro, verso, instrumental (acordes: Em B7 Em B7 C B7 Am B7)

 solo:
e|-12---------------------------------12----------------------------------|
B|-12--15--12-----------12--12--------12-15-12-12-------1212--------------|
G|-12---------14-12-------------------12---------14-12--------------12-12-|
D|------------------13----------13\-------------------13-------12-14------|
A|-----------------------------------------------------------14-----------|
E|------------------------------------------------------------------------|

e|-12------------------------------12----------------------------------------|
B|-12-15-12-12---------12-12-------12-15--12---------------------------------|
G|-12---------14-12----------------12-------14-12----------------------------|
D|------------------13--------12\--------------------13\---------------------|
A|---------------------------------------------------------------------------|
E|---------------------------------------------------------------------------|

e|-----------------------------------------------|
B|-------3------3-3-------3--------3-3-----------|
G|-------0------0-0-------0--------0-0-----------|  2x
D|-------4------4-4-------4--------4-4-----------|
A|--2222---2222------2222----3333----------------|
E|-----------------------------------------------|

e|------------------------------------------------------------------------|
B|-----------3----------3----------3-------------------3-----------3------|
G|-----------0----------0----------0-------------------0-----------0------|
D|-----------4----------4----------4-------------------4-----------4------|
A|----2222--------2222------3333------------3333-------------2222---------|
E|------------------------------------------------------------------------|
  hoy es mi cumpleanos     estoy sentado afuera junto a la pared
   que chico tan simpatico que chiste tan gracioso cuentalo otra vez

e|-----------------------------------|
B|--------3----------3---------3-----|
G|--------0----------0---------0-----| (repetir)
D|--------4----------4---------4-----|
A|--2222-------3333-------3333-------|
E|-----------------------------------|

e|---3-----------------2--------------------------------------------------|
B|---1-----------------1--------------------------------------------------|
G|---0-----------------0--------------------------------------------------|
D|---2-----------------1--------------------------------------------------|
A|---0-----------------0--------------------------------------------------|
E|---x-----------------x--------------------------------------------------|
  escucho suavemente   que se acaba el dia


e|-----3----------2----------0-----------------6--------------------------|
B|-----3----------4----------1---------------- 4--------------------------|
G|-----0----------2----------0-----------------0--------------------------|
D|-----0----------4----------2-----------------5--------------------------|
A|-----2----------2----------3-----------------0--------------------------|
E|-----3----------x----------x-----------------x--------------------------|
   me duele mas cada peldano de mi vida   hoy es mi cumpleanos

e|----5---------------------------------------0---------------------------|
B|----3---------------------------------------3---------------------------|
G|----0------------------0--0---3-------------0---------------------------|
D|----4-----------------4-4-------------------4---------------------------|
A|----2-----------------------3---------------2---------------------------|
E|--------------------------------------------0---------------------------|
    hoy es mi cumpleanos             felicitame...
Compositor não encontrado.
241 vistas
    • ½ Tono
    • A
    • Bb
    • B
    • C
    • Db
    • D
    • Eb
    • E
    • F
    • F#
    • G
    • Ab
  • Agregar a la lista

    0 comentarios

    Ver todos los comentarios

    ¿Lograste tocar?

    0 Tocaron 0 Aún no

    ¡Graba un video tocando Hoy Es Mi Cumpleanos y envíanoslo!

    00:00 / 00:00
    Outros vídeos desta música
    Repetir Calidad Automático
    Outros vídeos desta música
    00:00 / 00:00
    Automático
    OK