Cifra Club

Solo Un Par de Palabras

Hombres G

Cifrado: Principal (guitarra y guitarra eléctrica)
Já pensou em usar uma coleção de roupas do Cifra Club? Responda as perguntas abaixo e nos ajude nessa missão! →
tono: G
Em      C           G
Se que no quieres ni escucharme
Em      C        G
Se que ya todo termino

(Riff 2)
Am
Y yo no quiero hablarte

C              D   Dsus4  D
quiero escribirte una cancion uh uh uh

(Riff 1)
Em       C          G
Y entonces tendras que escucharme
Em       C          G
Y por la radio oiras mi voz

(Riff 2)
Am
Intentare tocarte
C        D  Dsus4  D
tu pequeno corazon   uh uh uh uh

C         D
Y una lagrima tuya
 G    Bm    Em
mojara este papel
 C          D   Dsus4
Solo un par de palabras
    G  C G D
te dire


(Riff 1)
      Em           C         G

E|------------------------------------------------------------|
B|------------------------------------------------------------|
G|----9-9-9-9-9-9-9-------------------------------------------|
D|---------------------10-------------------------------------|
A|------------------10----------------5-----5-----------------|
E|------------------------12-10---5-7---5-7---5-7-5-0---------|

(Riff 1)
       Em           C        G

E|------------------------------------------------------------|
B|----------------------------------10)-10)-10)-10)-10)--8----|
G|-----9-9-9-9-9-9-9------------------------------------------|
D|---------------------10-------------------------------------|
A|------------------10----------------------------------------|
E|------------------------12-10-------------------------------|

   (Riff 2)
      Am            C

E|------------------------10-8-7-8----------------------------|
B|---10)-8-8-------------------------8------------------------|
G|--------9-9-9-7-9-7-----------------------------------------|
D|------------------------------------------------------------|
A|------------------------------------------------------------|
E|------------------------------------------------------------|

    D                   Dsus4  D  Dsus4

E|------------------------------------------------------------|
B|------------------------------8-8---------------------------|
G|------------------7-7-7-7/9---9-9--7-7----------------------|
D|--5-5-5/7-7-7-7/9-----------7------7-7----------------------|
A|------------------------------------------------------------|
E|------------------------------------------------------------|


Em    C          G
Y me odiaras cuando me veas
Em       C       G
Y ni siquiera me miraras

(Riff 2)
Am
Probablemente te reiras

C             D   Dsus4  D
siempre te ha gustado interpretar uh uh uh

(Riff 1)
Em       C        G
Pero la pelicula termino
Em       C        G
Y ya solo se oye mi cancion

(Riff 2)
Am
Frase tras frase
C          D   Dsus4  D
va perforando tu corazon uh uh uh uh

 C          D
Y sabras que te quiero
  G      Bm     Em
Y que siempre te querre
 C          D   Dsus4
Solo un par de palabras
    G  C G D
te dire

 C          D   Dsus4
Solo un par de palabras
  G     Bm    Em
Solo un par de palabras
 C          D   Dsus4
Solo un par de palabras
    G   C G
te dire.
Composición de Davis Summer
Colaboración y revisión:
  • Daniel Flores
2.650 vistas
    • ½ Tono
    • A
    • Bb
    • B
    • C
    • Db
    • D
    • Eb
    • E
    • F
    • F#
    • G
    • Ab
  • Agregar a la lista

    0 comentarios

    Ver todos los comentarios

    ¿Lograste tocar?

    1 Tocaron 0 Aún no

    ¡Graba un video tocando Solo Un Par de Palabras y envíanoslo!

    00:00 / 00:00
    Outros vídeos desta música
    Repetir Calidad Automático
    Outros vídeos desta música
    00:00 / 00:00
    Automático
    OK