Cifra Club

Te Quiero

Hombres G

Cifrado: Principal (guitarra y guitarra eléctrica)
tono: D
[Intro] D  Bm  F#m  G  A  D  A 
         
[Tab - Solo Intro]

E|--------------------------------------------------|
B|--------------------------------------------------|
G|--------------------------------------------------|
D|--------------------------------------------------|
A|------5--5-5-----5--5-5------5-----5-----5--------|
E|--5-7--------5-7---------5-7---5-7---5-7----------|
    
        D       Bm      F#m                    G
E|--------------------------------------------------|
B|--------------------------------------------------|
G|--------------------------------------------------|
D|--------------4---4-2-----------------------------|
A|------5--------------------4-4---------4-2--------|
E|--5-7----5-7----------2--2-------2---2-----5-3----|

           A            D            A           D
E|--------------------------------------------------|
B|--------------------------------------------------|
G|--------------------------------------------------|
D|-----------------------------2-4-2----------------|
A|-----2-5--------2-4-5-5----5---------------2-4-5--|
E|-3-5-----5----5--------------------5---5-5--------|

[Primeira Parte]

 D  Bm            F#m  
No,    ya no me llores
    G            A      D     A
No me vayas a hacer llorar a mí
 D   Bm          F#m  
Dame,   dame tu mano
   G          A            D      A
Inténtalo mi niña, quiero verte reír

[Refrão 1]

D            Bm
  Abrázame fuerte
D                  Bm
  Ven corriendo a mi
D
  Te quiero, te quiero, te quiero
      G                  Gm        D
Y no hago otra cosa que pensar en ti

( Bm  D  A )

[Tab - Riff]

                    D
E|--------------------------------------------------|
B|--------------------------------------------------|
G|--------------------------------------------------|
D|--------------------------------------------------|
A|------5-----5-----5-------------------------------|
E|--5-7---5-7---5-7---------------------------------|

[Segunda Parte]

 D  Bm              F#m 
Tu     ya estas dormida
   G              A             D  A
Y yo te abrazo y siento que respi_ras
  D   Bm            F#m  
Sueño    con tu sonrisa
    G           A              D  A
Te beso muy despacio en tus mejillas

[Refrão 2]

D           Bm    D                     Bm
  Necesito verte,   donde quiera que estes
D
  Te quiero, te quiero, te quiero
      G                  Gm
Y no hago otra cosa que pensar en ti
      A                   D  Bm
Solo vivo y respiro para ti
     G    A      D  Bm  G  A   
Te quiero,  te quiero
     G          Gm   D  Bm  G  A
Te quiero, te quiero

[Solo] D  Bm  F#m  G  A  D  A
       D  Bm  F#m  G  A  D  A

[Tab - Solo]

             D        Bm          F#m
E|--5h7-5h7--7p5---------------------------------------|
B|----------------7-8-7---5-3---3-5b7--b7-b7r5--b7-----|
G|----------------------------4------------------------|
D|-----------------------------------------------------|
A|-----------------------------------------------------|
E|-----------------------------------------------------|

        G                  A             D           A
E|-----------------------------------------------------|
B|--5-5-5p3--------------------------------------------|
G|----------4-2-4-2-4--2---------------------7-9-9-9-7-|
D|-----------------------4-5-4-----------7-9-----------|
A|-----------------------------5-5/7-7-9---------------|
E|-----------------------------------------------------|
                                               
         D               Bm                       F#m
E|-7-7-7-7p5-------14----17-15-14-15/17-17-17-17h19----|
B|------------/15-----15-------------------------------|
G|-----------------------------------------------------|
D|-----------------------------------------------------|
A|-----------------------------------------------------|
E|-----------------------------------------------------|

                              G
E|-19-17h19---19-19\----15-15-15p14--------------------|
B|----------------------------------15-15--------------|
G|-----------------------------------------------------|
D|-----------------------------------------------------|
A|-----------------------------------------------------|
E|-----------------------------------------------------|
                      A
E|-----------------------------------------------------|
B|-------15-------15-------15-17-15/17-----------------|
G|-14h16----14h16----14h16-----------------------------|
D|-----------------------------------------------------|
A|-----------------------------------------------------|
E|-----------------------------------------------------|
   D                       A
E|-----------------------------------------------------|
B|-17b19--17b19--b19r17b19r17~~------------------------|
G|-----------------------------------------------------|
D|-----------------------------------------------------|
A|-----------------------------------------------------|
E|-----------------------------------------------------|

[Refrão Final]

D            Bm    
  Abrázame fuerte
D                  Bm
  Ven corriendo a mi
D                                      G
  Déjame que te diga otra vez que te quiero
     Gm         D  Bm  G  A
Te quiero, te quiero
     D  Bm  G  A      D
Te quiero,       te quiero
     Bm         G    D
Te quiero, te quiero

[Tab - Solo Final]

                                           D
E|--------------------------------------------------|
B|--------------------------------------------------|
G|--------------------------------------------------|
D|--------------------------------------------------|
A|------5--5-5-----5--5-5------5-----5-----5--------|
E|--5-7--------5-7---------5-7---5-7---5-7----------|
00:00 / 00:00
Otros videos de esta canción
Repetir
Otros videos de esta canción
Composición de David Summers
Colaboración y revisión:
39.588 exhibiciones
    • ½ Tono
    • A
    • Bb
    • B
    • C
    • Db
    • D
    • Eb
    • E
    • F
    • F#
    • G
    • Ab
  • Agregar a la lista
    00:00 / 00:00
    OK