Cifra Club

un Par de Palabras

Hombres G

Cifrado: Principal (guitarra y guitarra eléctrica)
tono: G
INTRO: (x 2)      (lo llamaré riff 1)

      Em         C       G

E|-----0-0-----0-0-----3-3~~3--------------------------------|
B|-----0-0-----1-1-----3-3~~3--------------------------------|
G|-----0-0-----0-0-----0-0~~0--------------------------------|
D|-----2-2---2---------0-0~~0--------------------------------|
A|---2-----3---------2---------------------------------------|
E|-0---------------3-----------------------------------------|

Las dos primeras líneas del verso van con el riff 1 (2 veces), y luego, después del G: (riff 2)

  Am       C      D (sus4-sus2)

E|-0~~---------0---2-3p2-0h2---2-3p2-0h2---------------------|
B|-1~~---------1---3-3---3-----3-3---3-----------------------|
G|-2~~---------0---2-2---2-----2-2---2-----------------------|
D|-2~~-------2---0-----------0-------------------------------|
A|-0~~-0-2-3-------------------------------------------------|
E|-----------------------------------------------------------|

Luego se repite el verso con los dos riffs, y luego sigue el coro:

    C       D      G    G/F#    Em     C       D (sus4-sus2)

E|-----0~~----2~~----3-----3-----0~~-----0~-----2-3p2-0h2----|
B|-----1~~----3~~----3-----3-----0~~-----1~-----3-3---3------|
G|-----0~~----2~~----0-----0-----0~~-----0~-----2-2---2------|
D|---2----2-0--------0-----0-----2~~---2----2-0--------------|
A|-3---------------2-----0-----2-----3-----------------------|
E|---------------3-----2-----0-------------------------------|

    G      C       G

E|-----3-----0-----3~~-3-------------------------------------|
B|-----3-----1-----3~~-3-------------------------------------|
G|-----0-----0-----0~~-0-------------------------------------|
D|-----0---2-------0~~-0-------------------------------------|
A|---2---3-------2-------------------------------------------|
E|-3-----------3---------------------------------------------|

G  O: (con riff 1 y 2)

E|-----------------------------------------------------------|
B|-----------------------------------------------------------|
G|-9-9-9-9-9-9-9---------------------------------------------|
D|------------------10---------------------------------------|
A|---------------10------------------------------------------|
E|---------------------12-10-7h10-10-7h10-10-10--------------|

E|-----------------------------------------------------------|
B|---------------------------10b10-10-10-10r-8-10br-8---8----|
G|-9-9-9-9-9-9-9--------------------------------------9---9-9|
D|------------------10---------------------------------------|
A|---------------10------------------------------------------|
E|---------------------12-10---------------------------------|

E|------10-8-7-8-7-------------------------------------------|
B|-----------------8-----------------------------------------|
G|-7-9-7------------------------------------------12-12-11-11|
D|-------------------5-5-5/7-7-7-7/9-9-9-12-14-12-14-14-12-12|
A|-----------------------------------------------------------|
E|-----------------------------------------------------------|
Composición de David Summers
10 vistas
    • ½ Tono
    • A
    • Bb
    • B
    • C
    • Db
    • D
    • Eb
    • E
    • F
    • F#
    • G
    • Ab
  • Agregar a la lista

    0 comentarios

    Ver todos los comentarios

    ¿Lograste tocar?

    0 Tocaron 0 Aún no

    ¡Graba un video tocando un Par de Palabras y envíanoslo!

    00:00 / 00:00
    Outros vídeos desta música
    Repetir Calidad Automático
    Outros vídeos desta música
    00:00 / 00:00
    Automático
    OK