Cifra Club

Nowhere Slow

Home Grown

Tab de bajo: Principal
TABBED BY: bRUCE
/ = SLIDE UP   \ = SLIDE DOWN   h = HAMMER ON   p = PULL OFF  m = PALM MUTE

Tune down a half-step

INTRO:
G-|-------------------------------------------------------------|
D-|-------------------------------------------------------------|
A-|-------------4----------4\3--8---8--8--8--8--9-7--7-7-7-7\6--|
E-|--4--4-4-4-4---2--2-2-2--------------------------------------|

G-|-------------------------------------------------------------|
D-|-------------------------------------------------------------|
A-|-------------4----------4\3--8---8--8--8--8--9-7--7-7-7-7\6--|
E-|--4--4-4-4-4---2--2-2-2--------------------------------------|

G-|-----------------------------------------------------------|
D-|-----------------------------------------------------------|
A-|-----------------------------------------------------------|
E-|--4--4-4--4-4-4-2--2-2--2-2-2-1--1-1--1-1-1-0--0-0--0-0-0--|

G-|-----------------------------------------------------------|
D-|-----------------------------------------------------------|
A-|-----------------------------------------------------------|
E-|--4--4-4--4-4-4-2--2-2--2-2-2-1--1-1--1-1-1-0--0-0--0-0-0--|

"Seems the harder that I try..."
G-|-------------------------------------------------------------------|
D-|-------------------------------------------------------------------|
A-|-------------------------------------------------------------------|
E-|--4-4-4-4-4-4-4-4-2-2-2-2-2-2-2-2-1-1-1-1-1-1-1-1-0-0-0-0-0-0-0-0--|

"The further I fall behind..."
G-|-------------------------------------------------------------------|
D-|-------------------------------------------------------------------|
A-|-------------------------------------------------------------------|
E-|--4-4-4-4-4-4-4-4-2-2-2-2-2-2-2-2-1-1-1-1-1-1-1-1-0-0-0-0-0-0-0-0--|

"So many things I just don't know..."
G-|-------------------------------------------------------------------|
D-|-------------------------------------------------------------------|
A-|-------------------------------------------------------------------|
E-|--4-4-4-4-4-4-4-4-2-2-2-2-2-2-2-2-1-1-1-1-1-1-1-1-0-0-0-0-0-0-0-0--|

"All these decisions..."
G-|--------------------------------------------------------------|
D-|--------------------------------------------------------------|
A-|--6--6-6--6-6-6--6--6-6--6-6--8-4--4-4--4-4-4--4--4-4--4-4-4--|
E-|--------------------------------------------------------------|

"Too little time..."
G-|--------------------------------------------------------------|
D-|--------------------------------------------------------------|
A-|--6--6-6--6-6-6--6--6-6--6-6--9-7--7-7--7-7-7--6--------------|
E-|--------------------------------------------------------------|

"Seems it's happened once again..."
G-|-----------------------------------------------------------|
D-|-----------------------------------------------------------|
A-|----------------6--6-6--6-6-6-8--8-8--8-8-8-9--9-9--9-9-9--|
E-|--4--4-4--4-4-4--------------------------------------------|

"What have I done..."
G-|--------------------------------------------------------------|
D-|--------------------------------------------------------------|
A-|----------------3--3-3--3-3-3--------------------------4-5-4--|
E-|--4--4-4--4-4-4---------------2--2-2-2-2-2-2-2--2-2-2---------|

"In a world that moves so fast..."
G-|------------------------------------------------------------------|
D-|------------------------------------------------------------------|
A-|----------------6--6-6--6-6-6---8---8--8---8--8--8-7--7-7--7-7-7--|
E-|--4--4-4--4-4-4---------------------------------------------------|

"Left with nothing to show..."
G-|-----------------------------------------------------------|
D-|-----------------------------------------------------------|
A-|--4--4-4--4-4-4-6--6-6--6-6-6---------------4--4-4--4-4-4--|
E-|------------------------------2--2-2--2-2-2----------------|

G-|-------------------------------------------------------------|
D-|-------------------------------------------------------------|
A-|-------------4----------4\3--8---8--8--8--8--9-7--7-7-7-7\6--|
E-|--4--4-4-4-4---2--2-2-2--------------------------------------|

G-|-------------------------------------------------------------|
D-|-------------------------------------------------------------|
A-|-------------4----------4\3--8---8--8--8--8--9-7--7-7-7-7\6--|
E-|--4--4-4-4-4---2--2-2-2--------------------------------------|

"Facing daily frustrations..."
G-|-------------------------------------------------------------------|
D-|-------------------------------------------------------------------|
A-|-------------------------------------------------------------------|
E-|--4-4-4-4-4-4-4-4-2-2-2-2-2-2-2-2-1-1-1-1-1-1-1-1-0-0-0-0-0-0-0-0--|

"Expectations..."
G-|-------------------------------------------------------------------|
D-|-------------------------------------------------------------------|
A-|-------------------------------------------------------------------|
E-|--4-4-4-4-4-4-4-4-2-2-2-2-2-2-2-2-1-1-1-1-1-1-1-1-0-0-0-0-0-0-0-0--|

"So many things I just don't know..."
G-|-------------------------------------------------------------------|
D-|-------------------------------------------------------------------|
A-|-------------------------------------------------------------------|
E-|--4-4-4-4-4-4-4-4-2-2-2-2-2-2-2-2-1-1-1-1-1-1-1-1-0-0-0-0-0-0-0-0--|

"All these decisions..."
G-|--------------------------------------------------------------|
D-|--------------------------------------------------------------|
A-|--6--6-6--6-6-6--6--6-6--6-6--8-4--4-4--4-4-4--4--4-4--4-4-4--|
E-|--------------------------------------------------------------|

"Too little time..."
G-|--------------------------------------------------------------|
D-|--------------------------------------------------------------|
A-|--6--6-6--6-6-6--6--6-6--6-6--9-7--7-7--7-7-7--6--------------|
E-|--------------------------------------------------------------|

"Seems it's happened once again..."
G-|-----------------------------------------------------------|
D-|-----------------------------------------------------------|
A-|----------------6--6-6--6-6-6-8--8-8--8-8-8-9--9-9--9-9-9--|
E-|--4--4-4--4-4-4--------------------------------------------|

"What have I done..."
G-|--------------------------------------------------------------|
D-|--------------------------------------------------------------|
A-|----------------3--3-3--3-3-3--------------------------4-5-4--|
E-|--4--4-4--4-4-4---------------2--2-2-2-2-2-2-2--2-2-2---------|

"In a world that moves so fast..."
G-|------------------------------------------------------------------|
D-|------------------------------------------------------------------|
A-|----------------6--6-6--6-6-6---8---8--8---8--8--8-7--7-7--7-7-7--|
E-|--4--4-4--4-4-4---------------------------------------------------|

"Left with nothing to show..."
G-|-----------------------------------------------------------|
D-|-----------------------------------------------------------|
A-|--4--4-4--4-4-4-6--6-6--6-6-6---------------4--4-4--4-4-4--|
E-|------------------------------2--2-2--2-2-2----------------|

G-|-------------------------------------------|
D-|-------------------------------------------|
A-|-------------------------------------------|
E-|--4-4-4--2-4-4-4--2-4-4-4--2-4-4-4--4-4-4--|

"I figured out..."
G-|---------------------------------------------------------|
D-|---------------------------------------------------------|
A-|--8----------6----------4----------3----------4----------|
E-|---------------------------------------------------------|

"Lessons learned at..."
G-|-------------------------------------------------|
D-|-------------------------------------------------|
A-|--4-4-4-4-4-4-4-4-4-4--6--6-6-6-6-6-6-6-6-6-6-6--|
E-|-------------------------------------------------|

SOLO
G-|--------------------------------------------------------------|
D-|--------------------------------------------------------------|
A-|--------------------------------6--6-6--6-6-6--6--6-6--6-6-6--|
E-|--4--4-4--4-4-4--4--4-4--4-4-4--------------------------------|

G-|--------------------------------------------------------------|
D-|--------------------------------------------------------------|
A-|--------------------------------4--4-4--4-4-4--4--4-4--4-4-4--|
E-|--2--2-2--2-2-2--2--2-2--2-2-2--------------------------------|

G-|--------------------------------------------------------------|
D-|--------------------------------------------------------------|
A-|--------------------------------6--6-6--6-6-6--6--6-6--6-6-6--|
E-|--4--4-4--4-4-4--4--4-4--4-4-4--------------------------------|

G-|--------------------------------------------------------------|
D-|--------------------------------------------------------------|
A-|--------------------------------4--4-4--4-4-4--4--4-4--4-4-4--|
E-|--9--9-9--9-9-9--9--9-9--9-9-9--------------------------------|

"Seems it's happened once again..."
G-|-----------------------------------------------------------|
D-|-----------------------------------------------------------|
A-|----------------6--6-6--6-6-6-8--8-8--8-8-8-9--9-9--9-9-9--|
E-|--4--4-4--4-4-4--------------------------------------------|

"What have I done..."
G-|--------------------------------------------------------------|
D-|--------------------------------------------------------------|
A-|----------------3--3-3--3-3-3--------------------------4-5-4--|
E-|--4--4-4--4-4-4---------------2--2-2-2-2-2-2-2--2-2-2---------|

"In a world that moves so fast..."
G-|------------------------------------------------------------------|
D-|------------------------------------------------------------------|
A-|----------------6--6-6--6-6-6---8---8--8---8--8--8-7--7-7--7-7-7--|
E-|--4--4-4--4-4-4---------------------------------------------------|

"Left with nothing to show..."
G-|-----------------------------------------------------------|
D-|-----------------------------------------------------------|
A-|--4--4-4--4-4-4-6--6-6--6-6-6---------------4--4-4--4-4-4--|
E-|------------------------------2--2-2--2-2-2----------------|

G-|---------------------------------|
D-|---------------------------------|
A-|---------------------------------|
E-|--4-4-4--2-4-4-4--2-4-4-4--2-4\--|
00:00 / 00:00
Otros videos de esta canción
Repetir
Otros videos de esta canción
Composición de Adam Lohrbach
11 exhibiciones
00:00 / 00:00
OK