Cifra Club

Aprenda

All About You

Hoobastank

Tablatura: Principal (guitarra)
tono: D
(intro com baixo e guitarra)

(riff 1)
E|-7-7-7-7-7-7-7-7-|-7-7-7-7-7-7-7-7-|-/10-10-10-10-10-10-10-10-|-/9-9-9-9-9-9-9-9|-/5-5-5-5-5-5-5-5-|-5-5-5-5-5-5-5-5--
B|-----------------|-----------------|--------------------------|-----------------|------------------|------------------
G|-----------------|-----------------|--------------------------|-----------------|------------------|------------------
D|-----------------|-----------------|--------------------------|-----------------|------------------|------------------
A|-----------------|-----------------|--------------------------|-----------------|------------------|------------------
E|-----------------|-----------------|--------------------------|-----------------|------------------|------------------

E|-/7-7-7-7-7-7-7-7-|-7-7-7-7-7-7/5/7-|-7-7-7-7-7-7-7-7-|-7-7-7-7-7-7-7-7-|-/10-10-10-10-10-10-10-10-|
B|------------------|-----------------|-----------------|-----------------|--------------------------|
G|------------------|-----------------|-----------------|-----------------|--------------------------|
D|------------------|-----------------|-----------------|-----------------|--------------------------|
A|------------------|-----------------|-----------------|-----------------|--------------------------|
E|------------------|-----------------|-----------------|-----------------|--------------------------|

E|--/9-9-9-9-9-9-9-9|-/5-5-5-5-5-5-5-5|-5-5-5-5-5-5-5-5-|-/7-7-7-7-7-7-7-7|-7-7-7-7-7-7/5/7----------|
B|------------------|-----------------|-----------------|-----------------|--------------------------|
G|------------------|-----------------|-----------------|-----------------|--------------------------|
D|------------------|-----------------|-----------------|-----------------|--------------------------|
A|------------------|-----------------|-----------------|-----------------|--------------------------|
E|------------------|-----------------|-----------------|-----------------|--------------------------|

E|--7-7-7-7-7-7-7-7-|-7-7-7-7-7-7-7-7-|-/10-10-10-10-10-10-10-10|-/9-9-9-9--17-17-17-17--|-5-5-5-5-5-5-5-5--|
B|------------------|-----------------|-------------------------|------------------------|------------------|
G|------------------|-----------------|-------------------------|------------------------|------------------|
D|------------------|-----------------|-------------------------|------------------------|------------------|
A|------------------|-----------------|-------------------------|------------------------|------------------|
E|------------------|-----------------|-------------------------|------------------------|------------------|

E|-5-5-5-5-5-5-5-5--|-7-7-7-7-7-7-7-7-|-7-7-7-7-7-7-7--|
B|------------------|-----------------|----------------|
G|------------------|-----------------|----------------|
D|------------------|-----------------|----------------|
A|------------------|-----------------|----------------|
E|------------------|-----------------|----------------|

(riff 1 - durante o verso 1)

(verso 1)
Spill out my heart, but you don't hear a word
'cause you're busy thinking 'bout how long 'til it's your turn.

So you can go on and on about yourself
Go on and on about yourself
And my heart can go back on the shelf
Go on and on about yourself!

(riff 2)
E|--------------------------|------------------------|-------------------------|------------------------|
B|--------------------------|------------------------|-------------------------|------------------------|
G|--------------------------|------------------------|-------------------------|------------------------|
D|--9-9-9-9--11--11--9--11--|-9-9-9--7-7-7-8---------|-9-9-9-9--11--11--9--11--|-9-9-9--7-7-7-8---------|
A|--9-9-9-9--11--11--9--11--|-9-9-9--7-7-7-8---------|-9-9-9-9--11--11--9--11--|-9-9-9--7-7-7-8---------|
E|--7-7-7-7--9---9---7--9---|-7-7-7--5-5-5-6---------|-7-7-7-7--9---9---7--9---|-7-7-7--5-5-5-6---------|

(riff 2  é usado como uma 'ponte' ligando o Verso 1 ao Refrão)

(refrão)
              B
But it's not all about you
D            E
All about you
    A                                     B    D     E    F  A   F   E   F 
The more you speak, the less I care about you, you, you, you
          B
It's not all about you
          D                E
The world turns without you
    A                                      B   D    E   F
The more you speak, the less I care about you, you, you

(verso 2 - guitarra usando  Riff 1 com um 'bend' na última nota)

Whatever I do, you've already done
Only you've done it better and way before anyone.

'Cause you think that it's some game to win
You think that it's some game to win
Accomplishments and places been
You think that it's some game to win

(refrão)
B  D  E  F  A   F   E   F   - B  D  F
You go on and on and on about yourself
B  D  E  F  A   F   E   F   - B  D  F
You go on and on and on about yourself

                        B  D  F
The list of who you know
                        B  D  F
The places that you've been

                          B
Well can't you see nobody cares about you
          D           E
It's not all about you
    A                                     B    D    E    F  A   F   E   F 
The more you speak, the less I care about you, you, you, you
          B
It's not all about you
          D                E
The world turns without you
    A                                     B    D    E    F  A   F   E 
The more you speak, the less I care about you, you, you, you
             A   F   E   F 
Care about you

(riff 2 )
Composição de Doug Ross / Hoobastank
Colaboración y revision:
  • Homero Kaú
65 reproducciones
    • ½ Tono
    • A
    • Bb
    • B
    • C
    • Db
    • D
    • Eb
    • E
    • F
    • F#
    • G
    • Ab
  • Adicionar à lista

    0 comentarios

    Ver todos os comentários

    ¿Conseguiste tocar?

    0 Tocaram 0 Ainda não

    Grave um vídeo tocando All About You e nos envie!

    00:00 / 00:00
    outros vídeos desta música
    repetir qualidade Automático
    Outros vídeos desta música
    00:00 / 00:00
    Automático
    OK