Cifra Club

Disappear

Hoobastank

Cifrado: Principal (guitarra y guitarra eléctrica)
tono: C
(intro e versos)

E |----------------------------1--0-------------------
B |-------5-7-10/7--7--7-------------/1--1--1---------
G |---------------------------------------------------
D |-0-0-0-0-0------------3-3---3---------3--3---3---2-

E |--1--0---------------------------------------
B |---------/1--1--1--------------1--3--3/5--3-3
G |---------------------------------------------
D |--2--2-------2--2---2--0---0-----------------

E |-------1----0-----------3--------------------------------------------------
B |----------------2-------1--------------------------------------------------
G |-------------------0-0--0----------5---7----7/9--7----7-------------------
D |-3--3----3----3---------2--------------------------------------------------
A |------------------------3--------------------------------------------------
D |-----------------------------0--0----0---0----------0----------------------

Do you know that everytime you're near everybody else seems far away
    D             C                 G    Bb        G              D   Dsus  D
E |-2-------------0-----------------3----1---------3--------------2----3----2-
B |-3-------------1-----------------3----3---------3--------------3----3----3-
G |-2-------------0-----------------0----3---------0--------------2----2----2-
D |-0-------------2-----------------0----3---------0--------------0----0----0-
A |-0-------------3-----------------2----1---------2--------------0----0----0-
D |-0-------------------------------x--------------x--------------0----0----0-
-
Can you come and make them disappear. Make them disappear and we can stay
    D            C              G    Bb             G             D   Dsus  D
E |-2------------0--------------3----1--------------3-------------2----3----2|
B |-3------------1--------------3----3--------------3-------------3----3----3|
G |-2------------0--------------0----3--------------0-------------2----2----2|
D |-0------------2--------------0----3--------------0-------------0----0----0|
A |-0------------3--------------2----1--------------2-------------0----0----0|
D |-0---------------------------x-------------------x-------------0----0----0|

(bridge At 1:52 Heavy Distortion)

      Can you make them disappear,make them disappear
    Bb5                     C5                    G5
E |--------------------------------------------------------------------------|
B |--------------------------------------------------------------------------|
G |-3-----------------------5------------------------------------------------|
D |-3-----------------------5---------------------5--------------------------|
A |-1-----------------------3---------------------5--------------------------|
D |-----------------------------------------------5--------------------------|

          whoaaa whoaaa  whoaaaaa whoaaaaa
    G5     F5     C5    Eb5   C5        G5
E |--------------------------------------------------------------------------|
B |--------------------------------------------------------------------------|
G |----------------5------8----5---------------------------------------------|
D |-5------3-------5------8----5---------5-----------------------------------|
A |-5------3-------3------6----3---------5-----------------------------------|
D |-5------3-----------------------------5-----------------------------------|

(first time this is played, the first G5 is ommitted. This line is repeated a lot
throughout the song)

(acoustic part at 2:25)

There's a pain that sleeps inside it sleeps with just one eye
     D                    Fmaj7  C                       Fmaj7    C
E |--2------------------------0---0-------------------------0------0---------|
B |--3------------------------1---1-------------------------1------1---------|
G |--2------------------------2---0-------------------------2------0---------|
D |--0------------------------3---2-------------------------3------2---------|
A |--0----------------------------3--------------------------------3---------|
D |--0-----------------------------------------------------------------------|

and awakens the moment that you leave.
                D
E |--------------2-----------------------------------------------------------|
B |--------------3-----------------------------------------------------------|
G |--------------2-----------------------------------------------------------|
D |--------------0-----------------------------------------------------------|
A |--------------0-----------------------------------------------------------|
D |--------------0-----------------------------------------------------------|
And I search through every face   without  a   single   trace      of the person
     D                    Fmaj7  C                       Fmaj7    C
E |--2------------------------0---0-------------------------0------0--------|
B |--3------------------------1---1-------------------------1------1--------|
G |--2------------------------2---0-------------------------2------0--------|
D |--0------------------------3---2-------------------------3------2--------|
A |--0----------------------------3--------------------------------3--------|
D |--0----------------------------------------------------------------------|

the person that I need.
      D
E |---2----------------------------------------------------------|
B |---3-----------------------------------------------------------|
G |---2-----------------------------------------------------------|
D |---0-----------------------------------------------------------|
A |---0-----------------------------------------------------------|
D |---0-----------------------------------------------------------|

(then he sings the chorus except you play the same notes as the Whoaaa whoaaa part)
(then the Whoaaa whoaaa part goes on for the rest of the song)

(this solo is going on during the Whoaa Whoaa part)

                Whoaa Whoaaaa whoaaaaa whoaaaa
E |----------10--8-------------6--5~----7------------------------------------|
B |-------12-----------------------------------------------------------------|
G |----12--------------------------------------------------------------------|
D |-12-----------------------------------------------------------------------|
A |--------------------------------------------------------------------------|
D |--------------------------------------------------------------------------|

                Whoaa Whoaaaa whoaaaaa whoaaaa
E |----------10--8-----12------11---12---14~~~-------------------------------|
B |-------12-----------------------------------------------------------------|
G |----12--------------------------------------------------------------------|
D |-12-----------------------------------------------------------------------|
A |--------------------------------------------------------------------------|
D |--------------------------------------------------------------------------|
00:00 / 00:00
Otros videos de esta canción
Repetir
Otros videos de esta canción
Composición de Dan Estrin / Douglas Robb
Colaboración y revisión:
  • antonio barbosa
107 vistas
    • ½ Tono
    • A
    • Bb
    • B
    • C
    • Db
    • D
    • Eb
    • E
    • F
    • F#
    • G
    • Ab
  • Agregar a la lista

    0 comentarios

    Ver todos los comentarios

    ¿Lograste tocar?

    2 Tocaron 0 Aún no

    ¡Graba un video tocando Disappear y envíanoslo!

    00:00 / 00:00
    OK