Cifra Club

Aprenda

Give It Back

Hoobastank

Tablatura: Principal (guitarra)
tono: G
Tuning: Open E

   Intro Part 1 (Distortion)
E |--------------------------------|------------------------------------|
B |--------------------------------|------------------------------------|
G#|--------------------------------|------------------------------------|
E |-0-12-10-0-9-10-0-4-5-0-5-7-0-3-|-0-12-10-0-9-10-0-4-5-0-5-7-0-4-5-7-|
B |--------------------------------|------------------------------------|
E |--------------------------------|------------------------------------|

E |--------------------------------|---------------------------|
B |--------------------------------|---------------------------|
G#|--------------------------------|---------------------------|
E |-0-12-10-0-9-10-0-4-5-0-5-7-0-3-|---------------------------|
B |--------------------------------|-0-2-3-0-3-5-0-2-3-0-3-5-1-|
E |--------------------------------|-0-2-3-0-3-5-0-2-3-0-3-5-1-|

   Intro Part 1 (Distortion)
E |--------------------------------|----------------------------------|
B |--------------------------------|----------------------------------|
G#|--------------------------------|----------------------------------|
E |--------------------------------|----------------------------------|
B |-0-12-10-0-9-10-0-4-5-0-5-7-0-3-|-0-12-10-0-9-10-0-4-5-0-5-7-0-4-5-7-|
E |-0-12-10-0-9-10-0-4-5-0-5-7-0-3-|-0-12-10-0-9-10-0-4-5-0-5-7-0-4-5-7-|

E |--------------------------------|---------------------------|
B |--------------------------------|---------------------------|
G#|--------------------------------|---------------------------|
E |--------------------------------|---------------------------|
B |-0-12-10-0-9-10-0-4-5-0-5-7-0-3-|-0-2-3-0-3-5-0-2-3-0-3-5-1-|
E |-0-12-10-0-9-10-0-4-5-0-5-7-0-3-|-0-2-3-0-3-5-0-2-3-0-3-5-1-|

   Verse (Distortion)
E |---------------|---------|--------------------------------------|--------------|---------|
B |---------------|---------|--------------------------------------|--------------|---------|
G#|---------------|---------|--------------------------------------|--------------|---------|
E |0-12-10-0-9-10-|--0-3-5--|-0-12-10-0-9-10-0-4-5-0-5-7-0-4-5-7-0-|-12-10-0-9-10-|--0-3-5--|
B |---------------|---------|--------------------------------------|--------------|---------|
E |---------------|---------|--------------------------------------|--------------|---------|

E |---------------------------------|----------------|---------|----------------------------|
B |---------------------------------|----------------|---------|----------------------------|
G#|---------------------------------|----------------|---------|----------------------------|
E |-0-2-3-0-3-5-0-2-3-0-3-5-0-2-3-5-|-0-12-10-0-9-10-|--0-3-5--|-0-12-10-0-9-10-0-4-0-5-7-0-|
B |---------------------------------|----------------|---------|----------------------------|
E |---------------------------------|----------------|---------|----------------------------|

E |----------------------|---------|---------------------------|
B |----------------------|---------|---------------------------|
G#|----------------------|---------|---------------------------|
E |-4-5-7-0-12-10-0-9-10-|--0-3-5--|-0-2-3-0-3-5-0-2-3-0-3-----|
B |----------------------|---------|-----------------------5-1-|
E |----------------------|---------|-----------------------5-1-|

   Chorus (Distortion)
E |----------------------|-----------------|-------------------|
B |----------------------|-----------------|-------------------|
G#|----------------------|-----------------|-------------------|
E |-0-0-0-12-12-12-8-8-8-|-10-X-X-13-0-0-0-|-8-8-8-3-3-3-5-5-5-|
B |-0-0-0-12-12-12-8-8-8-|-10-X-X-13-0-0-0-|-8-8-8-3-3-3-3-3-3-|
E |-0-0-0-12-12-12-8-8-8-|-10-X-X-13-0-0-0-|-8-8-8-3-3-3-3-3-3-|

   Breakdown (Distortion)                                          
E |----------------------|----------------------|--------------|
B |----------------------|----------------------|--------------|
G#|----------------------|----------------------|--------------|
E |----------------------|----------------------|------------3-|
B |----------------------|----------------------|------------3-|
E |-0-1-1-0-1--0-1-1-0-1-|-0-1-1-0-1--0-1-1-0-1-|-0-1-1-0-1--3-|
pm  . . . . .  . . . . .   . . . . .  . . . . .   . . . . . 

E |----------------------|---------------------|--------------|
B |----------------------|---------------------|--------------|
G#|----------------------|---------------------|--------------|
E |---------1----------1-|---------1---------1-|----------1-3-|
B |---------1----------1-|---------1---------1-|----------1-3-|
E |-0-1-1-0-1--0-1-1-0-1-|-0-1-1-0-1-0-1-1-0-1-|-0-1-1-0--1-3-|
pm  . . . .    . . . .     . . . .   . . . .     . . . .

E |----------------------|---------------------|--------------|
B |----------------------|---------------------|--------------|
G#|----------------------|---------------------|--------------|
E |---------1----------1-|---------1---------1-|------------3-|
B |-0-1-1-0-1--0-1-1-0-1-|-0-1-1-0-1-0-1-1-0-1-|-0-1-1-0-1--3-|
E |-0-1-1-0-1--0-1-1-0-1-|-0-1-1-0-1-0-1-1-0-1-|-0-1-1-0-1--3-|
pm  . . . .    . . . .     . . . .   . . . .     . . . . . 

E |----------------------|---------------------|--------------|
B |----------------------|---------------------|--------------|
G#|----------------------|---------------------|--------------|
E |---------1----------1-|---------1-----------|------------3-|
B |-0-1-1-0-1--0-1-1-0-1-|-0-1-1-0-1-0-1-1-0-1-|-0-1-1-0-1--3-|
E |-0-1-1-0-1--0-1-1-0-1-|-0-1-1-0-1-0-1-1-0-1-|-0-1-1-0-1--3-|
40 reproducciones
    • ½ Tono
    • A
    • Bb
    • B
    • C
    • Db
    • D
    • Eb
    • E
    • F
    • F#
    • G
    • Ab
  • Adicionar à lista

    0 comentarios

    Ver todos os comentários

    ¿Conseguiste tocar?

    0 Tocaram 0 Ainda não

    Grave um vídeo tocando Give It Back e nos envie!

    00:00 / 00:00
    outros vídeos desta música
    repetir qualidade Automático
    Outros vídeos desta música
    00:00 / 00:00
    Automático
    OK