Cifra Club

Hello Again Intro

Hoobastank

Tablatura: Principal (guitarra)
tono: F
Tabbed by: Stevie B
Email: S*

Tuning: Drop D (DADGBe)

e|-0-0-0-0--0h2-2-2--2-2--0-0-0-0--0h2-2-2--2-2--3-3-3--3-3-3--3-3--1-1-1--0-0-0--0-0--|
B|-3-3-3-3--3-3-3-3--3-3--3-3-3-3--3-3-3-3--3-3--3-3-3--3-3-3--3-3--3-3-3--3-3-3--3-3--|
G|-2-2-2-2--2-2-2-2--2-2--2-2-2-2--2-2-2-2--2-2--2-2-2--2-2-2--2-2--2-2-2--2-2-2--2-2--|
D|-0-0-0-0--0-0-0-0--0-0--0-0-0-0--0-0-0-0--0-0--0-0-0--0-0-0--0-0--0-0-0--0-0-0--0-0--|
A|-------------------------------------------------------------------------------------|
D|-------------------------------------------------------------------------------------|

e|---------------------------------------------------------------------------|
B|---------------------------------------------------------------------------|
G|-9-9-9-9-----9/11-11-11-----11-11------9-9-9-9-----9/11-11-11-11-----11-11-|
D|-x-x-x-x-----x--x--x--x------x--x------x-x-x-x-----x--x--x--x--x------x--x-|
A|-7-7-7-7-----7/-9--9--9------9--9------7-7-7-7-----7/-9--9--9--9------9--9-|
D|---------0-0------------0-0-------0-0---------0-0---------------0-0--------|
           . .            . .       . .         . .               . .
e|-----------------------------------------------------------------------------------|
B|-----------------------------------------------------------------------------------|
G|-----10-10-10-10-----10-10-10-10-----10-10-----5-5-5-5-----5-5-5-5-----5-5-5-5-----|
D|-----10-10-10-10-----10-10-10-10-----10-10-----5-5-5-5-----5-5-5-5-5-5-5-5-5-5-5-5-|
A|------8--8--8--8-8-8--8--8--8--8-8-8--8--8-8-8-3-3-3-3-3-3-3-3-3-3-3-3-3-3-3-3-3-3-|
D|-0-0--8--8--8--8-8-8--8--8--8--8-8-8--8--8-8-8-3-3-3-3-3-3---------.*.-.-|
   . .             . .             . .       . .         . .
e|---------------------------------------------------------------------------|
B|---------------------------------------------------------------------------|
G|-9-9-9-9-----9/11-11-11-----11-11------9-9-9-9-----9/11-11-11-11-----11-11-|
D|-x-x-x-x-----x--x--x--x------x--x------x-x-x-x-----x--x--x--x--x------x--x-|
A|-7-7-7-7-----7/-9--9--9------9--9------7-7-7-7-----7/-9--9--9--9------9--9-|
D|---------0-0------------0-0-------0-0---------0-0---------------0-0--------|
           . .            . .       . .         . .               . .
e|-------------------------------------------------------------------------------|
B|-------------------------------------------------------------------------------|
G|-----10-10-10-10-----10-10-10-10-10-10-10-10-10-10-5-5-5-5-5-5-5-5-5-5-5-5-5-5-|
D|-----10-10-10-10-----10-10-10-10-10-10-10-10-10-10-5-5-5-5-5-5-5-5-5-5-5-5-5-5-|
A|------8--8--8--8-8-8--8--8--8--8--8--8--8--8--8--8-3-3-3-3-3-3-3-3-3-3-3-3-3-3-|
D|-0-0--8--8--8--8-8-8--8--8--8--8--8--8--8--8--8--8-3-3-3-3-3-3-----------------|
   . .             . .

| /  slide up
| \  slide down
| h  hammer-on
| p  pull-off
| ~  vibrato
| +  harmonic
| x  Mute note
====================================================================================================
20 reproducciones
    • ½ Tono
    • A
    • Bb
    • B
    • C
    • Db
    • D
    • Eb
    • E
    • F
    • F#
    • G
    • Ab
  • Adicionar à lista

    0 comentarios

    Ver todos os comentários

    ¿Conseguiste tocar?

    0 Tocaram 0 Ainda não

    Grave um vídeo tocando Hello Again Intro e nos envie!

    00:00 / 00:00
    outros vídeos desta música
    repetir qualidade Automático
    Outros vídeos desta música
    00:00 / 00:00
    Automático
    OK