Cifra Club

Aprenda

Hello Again

Hoobastank

Tablatura: Principal (guitarra)
tono: C
DROP D TUNING!

/ \ - slide
^   - bend
... - palm mute
x
x   - scratchage
x
7x
7x
5x  - mute after strumming
5x

Intro:  (2x)                    Then:  
e|-----------------------------|---------------------------------------------|
B|-----------------------------|---------------------------------------------|
G|9-9-9-9---9/11-11-11---11-11-|-12-12-12-12--12-12-12-12--12-12--10-10-10-10|
D|x-x-x-x---x--x--x--x----x--x-|--x--x--x--x---x--x--x--x---x--x---x--x--x--x|
A|7-7-7-7---7/-9--9--9----9--9-|-10-10-10-10--10-10-10-10--10-10---8--8--8--8|
D|-----------------------------|---------------------------------------------|

Intro Cont'd:
e|---------------------------------------------------------------------------|
B|---------------------------------------------------------------------------|
G|-9-9-9-9--11^(bend like a mofo)--------------------------------------------|
D|-x-x-x-x-------------------------------------------------------------------|
A|-7-7-7-7-------------------------------------------------------------------|
D|---------------------------------------------------------------------------|

Pre Verse:  (2x)
e|---------------------------------------------------------------------------|
B|---------------------------------------------------------------------------|
G|9-9-9-9-----9/11-11-11-----11-11-----9-9-9-9-----9/11-11-11-----11-11------|
D|x-x-x-x-----x--x--x--x------x--x-----x-x-x-x-----x--x--x--x------x--x------|
A|7-7-7-7-----7/-9--9--9------9--9-----7-7-7-7-----7/-9--9--9------9--9------|
D|--------0-0------------0-0-------0-0---------0-0------------0-0------------|
          ...            ...       ...         ...            ...

Pre Verse Cont'd:
e|---------------------------------------------------------------------------|
B|---------------------------------------------------------------------------|
G|10-10-10-10-----10-10-10-10-----10-10-----5-5-5-5-----5-5-5-5-----5-5------|
D|10-10-10-10-----10-10-10-10-----10-10-----5-5-5-5-----5-5-5-5-5-5-5-5------|
A|-8--8--8--8-8-8--8--8--8--8-8-8--8--8-8-8-3-3-3-3-3-3-3-3-3-3-3-3-3-3------|
D|-8--8--8--8-8-8--8--8--8--8-8-8--8--8-8-8-3-3-3-3-3-3----------------------|
              ...             ...       ...         ...         ...

Verse:  "I dream that one day..."
  (2x)                          Then:  
e|-----------------------------|---------------------------------------------|
B|-----------------------------|---------------------------------------------|
G|9-9-9-9---9/11-11-11---11-11-|-12-12-12-12--12-12-12-12--12-12--10-10-10-10|
D|x-x-x-x---x--x--x--x----x--x-|--x--x--x--x---x--x--x--x---x--x---x--x--x--x|
A|7-7-7-7---7/-9--9--9----9--9-|-10-10-10-10--10-10-10-10--10-10---8--8--8--8|
D|-----------------------------|---------------------------------------------|

Intro Cont'd:    (On 2nd time, do this at end)
e|--------------|-------------------------------------------------------------|
B|--------------|-------------------------------------------------------------|
G|-9-9-9-9--9-9-|-------------------------------------------------------------|
D|-x-x-x-x--x-x-|----3-3-3-3-2------------------------------------------------|
A|-7-7-7-7--7-7-|----3-3-3-3-2-2-2-2-2-2-2-2----------------------------------|
D|--------------|16\-3-3-3-3-2-2-2-2-2-2-2-2----------------------------------|
                               .............

Chorus:  "There's much more for us to see..."  (2x)
e|---------------------------------------------------------------------------|
B|---------------------------------------------------------------------------|
G|5/7-5/7-5/7-5/7--5/7-5/7-5/7-5/7---------3-3-3-5-5-5-7-7-7-10-10-10-10-10--|
D|5/7-5/7-5/7-5/7--5/7-5/7-5/7-5/7-x-x-x-x-x-x-x-x-x-x-x-x-x--x--x--x--x--x--|
A|3/5-3/5-3/5-3/5--3/5-3/5-3/5-3/5-x-x-x-x-1-1-1-3-3-3-5-5-5--8--8--8--8--8--|
D|---------------------------------x-x-x-x-----------------------------------|

Chorus Cont'd:
e|---------------------------------------------------------------------------|
B|---------------------------------------------------------------------------|
G|-----7-7-7-7-------7-7-7-7-----------7-------------------------------------|
D|-----7-7-7-7-------7-7-7-7-----------7-------------------------------------|
A|5-5--5-5-5-5--5-5--5-5-5-5--5-5-5-5--5-------------------------------------|
D|5-5--5-5-5-5--5-5--5-5-5-5--5-5-5-5--5-------------------------------------|
  ...           ...           .......

Repeat Pre Verse

Repeat Verse

Repeat Chorus

Bridge:  (Play This and then the Pre Verse again)
e|---------------------------------------------------------------------------|
B|---------------------------------------------------------------------------|
G|7~-------------------------------------------------------------------------|
D|7~-(Delay Effect)-x-x-x----------------------------------------------------|
A|5~----------------x-x-x----------------------------------------------------|
D|------------------x-x-x----------------------------------------------------|

Repeat Chorus

Chorus Cont'd:
e|---------------------------------------------------------------------------|
B|---------------------------------------------------------------------------|
G|5/7-5/7-5/7-5/7-11-11-11-11-5/7-5/7-5/7-5/7-11-11-11-11-3-3-3-5-5-5-7-7-7--|
D|5/7-5/7-5/7-5/7--x--x--x--x-5/7-5/7-5/7-5/7--x--x--x--x-x-x-x-x-x-x-x-x-x--|
A|3/5-3/5-3/5-3/5--9--9--9--9-3/5-3/5-3/5-3/5--9--9--9--9-1-1-1-3-3-3-5-5-5--|
D|---------------------------------------------------------------------------|

Chorus Cont'd:
e|---------------------------------------------------------------------------|
B|---------------------------------------------------------------------------|
G|10-10-10-10-10-10------7-7-7-7-------7-7-7-7-----------7-------------------|
D|-x--x--x--x--x--x------7-7-7-7-------7-7-7-7-----------7-------------------|
A|-8--8--8--8--8--8-5-5--5-5-5-5--5-5--5-5-5-5--5-5-5-5--5-------------------|
D|------------------5-5--5-5-5-5--5-5--5-5-5-5--5-5-5-5--5-------------------|
                    ...           ...           .......

Chorus Cont'd:
e|---------------------------------------------------------------------------|
B|---------------------------------------------------------------------------|
G|5/7-5/7-5/7-5/7-11-11-11-11-5/7-5/7-5/7-5/7-11-11-11-11-3-3-3-5-5-5-7-7-7--|
D|5/7-5/7-5/7-5/7--x--x--x--x-5/7-5/7-5/7-5/7--x--x--x--x-x-x-x-x-x-x-x-x-x--|
A|3/5-3/5-3/5-3/5--9--9--9--9-3/5-3/5-3/5-3/5--9--9--9--9-1-1-1-3-3-3-5-5-5--|
D|---------------------------------------------------------------------------|

Chorus Cont'd:
e|---------------------------------------------------------------------------|
B|---------------------------------------------------------------------------|
G|10-10-10-10-10-10-7x-------------------------------------------------------|
D|-x--x--x--x--x--x-7x-------------------------------------------------------|
A|-8--8--8--8--8--8-5x-------------------------------------------------------|
D|------------------5x-------------------------------------------------------|
28 reproducciones
    • ½ Tono
    • A
    • Bb
    • B
    • C
    • Db
    • D
    • Eb
    • E
    • F
    • F#
    • G
    • Ab
  • Adicionar à lista

    0 comentarios

    Ver todos os comentários

    ¿Conseguiste tocar?

    0 Tocaram 0 Ainda não

    Grave um vídeo tocando Hello Again e nos envie!

    00:00 / 00:00
    outros vídeos desta música
    repetir qualidade Automático
    Outros vídeos desta música
    00:00 / 00:00
    Automático
    OK