Cifra Club

I Don't Think I Love You

Hoobastank

Cifrado: Principal (guitarra y guitarra eléctrica)
tono: G
(afinação D)

(intro)

|---------------------------------------------------------------------------------|
|--------------------------------------------------------------------------15-15--|
|----------12-11-9------11-11-12-12-7-7------11-11-12-11-9-----11-11-12-12--------|
|-----9-9----------7--7------------------9-9---------------4-4--------------------|
|-7-7-----------------------------------------------------------------------------|
|---------------------------------------------------------------------------------| 3x

(verse)
|--------------------------------------------------------------------|
|--------------------------------------------------------------------|
|-----7-----7---7------7-----7---7------7-----7---7------7-----7---7-|
|-4-4---4-4---4----4-4---4-4---4----5-5---5-5---5--------------------|
|----------------------------------------------------5-5---5-5---5---|
|--------------------------------------------------------------------| 4x

(refrão)
|---------------------------------------------------------------------------------|
|--------------------------------------------------------------------------15-15--|
|----------12-11-9------11-11-12-12-9-9------11-11-12-11-9-----11-11-12-12--------|
|-----9-9----------7--7------------------9-9---------------4-4--------------------|
|-7-7-----------------------------------------------------------------------------|
|---------------------------------------------------------------------------------| 2x

(verse 2)
|--------------------------------------------------------------------|
|--------------------------------------------------------------------|
|-----7-----7---7------7-----7---7------7-----7---7------7-----7---7-|
|-4-4---4-4---4----4-4---4-4---4----5-5---5-5---5--------------------|
|----------------------------------------------------5-5---5-5---5---|
|--------------------------------------------------------------------| 4x

(refrão 2)
|---------------------------------------------------------------------------------|
|--------------------------------------------------------------------------15-15--|
|----------12-11-9------11-11-12-12-9-9------11-11-12-11-9-----11-11-12-12--------|
|-----9-9----------7--7------------------9-9---------------4-4--------------------|
|-7-7-----------------------------------------------------------------------------|
|---------------------------------------------------------------------------------|  2x

|---------------------------|
|---------------------------|
|-9-9--11-11--12-12--7-7----|
|-9-9--11-11--12-12--7-7----|
|-7-7---9--9--10-10--5-5----|
|---------------------------|

|---------------------------------------------------------------------------------|
|--------------------------------------------------------------------------15-15--|
|----------12-11-9------11-11-12-12-7-7------11-11-12-11-9-----11-11-12-12--------|
|-----9-9----------7--7------------------9-9---------------4-4--------------------|
|-7-7-----------------------------------------------------------------------------|
|---------------------------------------------------------------------------------|

(bridge)
|-----------------------------------------------------------|
|-----------------------------------------------------------|
|-----7-14-12-11--7-14-12-11------7-14-12-11--7-14-12-11----|
|-----------------------------------------------------------|
|-7-7-------------------------5-5---------------------------|
|-----------------------------------------------------------|

|--------------------------------------------------------------------|
|--------------------------------------------------------------------|
|-----------------------------5-5-5-7-7-7-9-9-9-11-11-11-12-12-12----|
|-----11-12-11-9--11-12-11-9-----------------------------------------|
|-9-9-------------------------3-3-3-5-5-5-7-7-7--9--9--9-10-10-10----|
|--------------------------------------------------------------------| 2x

(refrão 3)
|---------------------------------------------------------------------------------|
|--------------------------------------------------------------------------15-15--|
|----------12-11-9------11-11-12-12-7-7------11-11-12-11-9-----11-11-12-12--------|
|-----9-9----------7--7------------------9-9---------------4-4--------------------|
|-7-7-----------------------------------------------------------------------------|
|---------------------------------------------------------------------------------|  2x

|---------------------------|
|---------------------------|
|-9-9--11-11--12-12--7-7----|
|-9-9--11-11--12-12--7-7----|
|-7-7---9--9--10-10--5-5----|
|---------------------------|

|---------------------------------------------------------------------------------|
|--------------------------------------------------------------------------15-15--|
|----------12-11-9------11-11-12-12-7-7------11-11-12-11-9-----11-11-12-12--------|
|-----9-9----------7--7------------------9-9---------------4-4--------------------|
|-7-7-----------------------------------------------------------------------------|
|---------------------------------------------------------------------------------|

|---------------------------------------------------------------------------------|
|--------------------------------------------------------------------------15-15--|
|----------12-11-9------11-11-12-12-7-7------11-11-12-11-9-----11-11-12-12--------|
|-----9-9----------7--7------------------9-9---------------4-4--------------------|
|-7-7-----------------------------------------------------------------------------|
|---------------------------------------------------------------------------------|
Composición de Doug Ross / Hoobastank
Colaboración y revisión:
  • Danilo Valente
210 vistas
    • ½ Tono
    • A
    • Bb
    • B
    • C
    • Db
    • D
    • Eb
    • E
    • F
    • F#
    • G
    • Ab
  • Agregar a la lista

    0 comentarios

    Ver todos los comentarios

    ¿Lograste tocar?

    0 Tocaron 0 Aún no

    ¡Graba un video tocando I Don't Think I Love You y envíanoslo!

    00:00 / 00:00
    Outros vídeos desta música
    Repetir Calidad Automático
    Outros vídeos desta música
    00:00 / 00:00
    Automático
    OK