Cifra Club

If I Were You

Hoobastank

Tablatura: Principal (guitarra)
Tom: D
Intro: A2 - C#m ; 2x


--------
Verse 1 | One strum each
--------


       A2                      C#m
e|-----0--------------------|---4-----------------------|
B|-----0--------------------|---5-----------------------|
G|-----2--------------------|---6-----------------------|
D|-----2--------------------|---6-----------------------|  
A|-----0--------------------|---4-----------------------|
E|--------------------------|---------------------------|
      
     You seem to find the dark, when everything is bright 


       A2                             C                   G 
e|-----0--------------------|---------0-------------------3--|
B|-----0--------------------|---------1-------------------3--|
G|-----2--------------------|---------0-------------------0--|
D|-----2--------------------|---------2-------------------0--|  
A|-----0--------------------|---------3-------------------2--|
E|--------------------------|---------0-------------------3--|
                               
     You look for all that's wrong, instead of all that's right 

       A2                      C#m
e|-----0--------------------|---4-----------------------|
B|-----0--------------------|---5-----------------------|
G|-----2--------------------|---6-----------------------|
D|-----2--------------------|---6-----------------------|  
A|-----0--------------------|---4-----------------------|
E|--------------------------|---------------------------|
      
      Does it feel good to you, to rain on my parade 

       A2                             C                   G 
e|-----0--------------------|---------0-------------------3--|
B|-----0--------------------|---------1-------------------3--|
G|-----2--------------------|---------0-------------------0--|
D|-----2--------------------|---------2-------------------0--|  
A|-----0--------------------|---------3-------------------2--|
E|--------------------------|---------0-------------------3--|

       You never say a word,        unless it's to complain 

       
e|-----0--------------------|---2-----------------------|
B|-----1--------------------|---3-----------------------|
G|-----0--------------------|---2-----------------------|
D|-----2--------------------|---0-----------------------|  
A|-----3--------------------|---X-----------------------|
E|-----0--------------------|---X-----------------------|
      
    It's driving me            insane 


--------
Chorus: | Strum here
--------

D            A
  If I were you 

              C           G       D
  Holding the world right in my hands 

D                     A
  The first thing I'd do 
 
              C          G          D
  Is thank the stars for all that I am 

              A - C#m - C - G
  If I were you 


--------
Verse 2 | 
--------


A2                        
  Look at what's around you now 

C#m
  More than you ever dreamed 

A2                              C               G
  Have you forgotten just, how hard it used to be? 

A2                         C#m
  So what's it going to take, for you to realize 

A2                            C              G  
  That all could go away, in one blink of an eye 

   C                 D   (keep playing D)  
It happens all the time 


--------
Chorus: |
--------

D            A
  If I were you 

              C           G       D
  Holding the world right in my hands 

D                     A
  The first thing I'd do 
            
            C       G 
  Is thank the stars above 

          C       G
  tell the ones I love

           D
  that i do
-------
Bridge:|
-------

                 F
  Yeah if I were you 
  
  G                       A 
  Wohoo, yeah if I were you 
  
              F
  If I were you 
 
  G           A - C#m ;4x
  Wohoo, If I were you



Coda:

A2                        C#m
  So what's it going to take, for you to realize 

A2                          C               G  
  It all could go away, in one blink of an eye 
 
  C                    D    (keep playing D)
  It happens all the time 



--------
Chorus: |
--------

D            A
  If I were you 
 
              C           G     D
  Holding the world right in my hands 

D                     A
  The first thing I'd do 

               C       G  
  Is thank the stars above 

          C       G
  For the words I love
     
         G#         Bb        C 
  Take a breath and enjoy the view 
  
         G#        Bb      C    
  Live the life that I wanna do 
  
         G#
  If I were you 
  
        Bb
  If I were you 
  
        C
  If I were you
reproducciones 311
Acordes para:
    Composição: Douglas Robb Colaboración y revision:
    • Marco Markitto

    0 comentarios

    mostrar más comentarios

    ¿Conseguiste tocar?

    2 tocaron 0 aún no

    ¡Graba un vídeo tocando If I Were You y envianoslo!

    00:00 / 00:00
    outros vídeos desta música
    repetir qualidade Automático
    Outros vídeos desta música
    00:00 / 00:00
    Automático
    OK