Cifra Club

Aprenda

Inside Of You

Hoobastank

Tablatura: Principal (guitarra)
tono: F
Album: Everyman For Himself
Tuning: Drop D

INTRO:
e|---------------5555---5555----------------|
B|---------------6666---6666---6666---5h6p5-|
G|----x-5--------5555---5555---5555---5-----|
D|----x-5-x-5--0------0------3------7-------|
A|----x-3-x-5--0------0------3------7-------|
D|--------x-5--0------0------3------7-------|

e|------5555---5555---6666------------------|
B|------6666---6666---6666---5h6p5----------|
G|------5555---5555----------5--------------|
D|----0------0------8------7----------------|
A|----0------0------8------7----------------|
D|----0------0------8------7----------------|

PRE-CHORUS:
e|------------------------------------------------|
B|------------------------------------------------|
G|------------------------------------------------|
D|------------------------11----1-------0h2h3p2p0-|
A|----5-------0h3h5----33----33---0h2h3-----------|
D|------0h3h5-------------------------------------|

After you finish the second time, it goes:
e|---------------------|
B|---------------------|
G|---------------------|
D|---------------------|
A|----5--------0h3h5p0-|
D|-------0h3h5---------|

You could also play the first 5 on the A string as a 0 on the D string, whatever's easiest for you.

CHORUS:
Same as the intro.

SOLO:
e|---------------------------|
B|---------------------------|
G|--------------5h7----------|
D|----------5h7-----5h7-10p8-| (x2)
A|----0h3h5-------------10p8-|
D|----------------------10p8-|

Then:

e|--------------------------|
B|--------------------------|
G|--------------2h3---------|
D|----------2h3-----2h3-7/8-| (x2)
A|----0h1h3-------------7/8-|
D|----------------------7/8-|

Afterwards, play:
e|---------------------|
B|---------------------|
G|---------------------|
D|---------------------|
A|----5--------0h3h5p0-|
D|-------0h3h5---------|

Then:
e|-----------------------------|
B|-----------------------------|
G|-----------------------------|
D|----00-00-33-77-00---88-1010-|
A|----00-00-33-77-00---88-1010-|
D|----00-00-33-77-00---88-1010-|

And that's pretty much it.

Feel free to comment and/or rate.

-Enjoy

Composição de Douglas Robb
237 reproducciones
    • ½ Tono
    • A
    • Bb
    • B
    • C
    • Db
    • D
    • Eb
    • E
    • F
    • F#
    • G
    • Ab
  • Adicionar à lista

    0 comentarios

    Ver todos os comentários

    ¿Conseguiste tocar?

    0 Tocaram 0 Ainda não

    Grave um vídeo tocando Inside Of You e nos envie!

    00:00 / 00:00
    outros vídeos desta música
    repetir qualidade Automático
    Outros vídeos desta música
    00:00 / 00:00
    Automático
    OK