Cifra Club

Aprenda

Just One

Hoobastank

Tablatura: Principal (guitarra)
tono: E
Afinação Padrão

Introdução

e|----------------|----------------|----------------|----------------|
B|----------------|----------------|----------------|----------------|
G|------6---4-----|--8---9---4-4---|--8---9---4-4---|--6---11--8-8\--|
D|------x---x-----|--x---x---x-x---|--x---x---x-x---|--x---x---x-x---|
A|4-4-4-4---2---7-|7-6---7---2-2-0-|0-6---7---2-2-2-|2-4---9---6-6\--|
E|----------------|----------------|----------------|----------------|

e|----------------|----------------|----------------|----------------|
B|----------------|----------------|----------------|----------------|
G|------6---4-----|--8---9---4-4---|--8---9---4-4---|--6---11--8-8\--|
D|------x---x-----|--x---x---x-x---|--x---x---x-x---|--x---x---x-x---|
A|4-4-4-4---2---7-|7-6---7---2-2-0-|0-6---7---2-2-2-|2-4---9---6-6\--|
E|----------------|----------------|----------------|----------------|

e|----4-----------|----0-----------|----------------|----------------|
B|----4-----------|----0-----------|----------------|----------------|
G|----6---------2-|----2-----------|--------------4-|----4---4-4-4-4-|
D|6---6---------2-|----2-----------|2---2---2-2---4-|----4---4-4-4-4-|
A|4---4---------0-|----0-----------|2---2---2-2---2-|----2---2-2-2-2-|
E|4---4-----------|----------------|0---0---0-0-----|----------------|

e|----4-----------|----0-----------|----------------|----------------|
B|----4-----------|----0-----------|----------------|----------------|
G|----6---------2-|----2-----------|----------------|------4---4-4---|
D|6---6---------2-|----2-----------|4---4---4-4---2-|------4---4-4---|
A|4---4---------0-|----0-----------|4---4---4-4---2-|------2---2-2---|
E|4---4-----------|----------------|2---2---2-2---0-|----------------|


Verso x4 

e|----------------|----------------|----------------|----------------|
B|----------------|----------------|----------------|----------------|
G|------6---4-----|--8---9---4-4---|--8---9---4-4---|--6---11--8-8\--|
D|------x---x-----|--x---x---x-x---|--x---x---x-x---|--x---x---x-x---|
A|4-4-4-4---2---7-|7-6---7---2-2-0-|0-6---7---2-2-2-|2-4---9---6-6\--|
E|----------------|----------------|----------------|----------------|


Refrão

e|----4-----------|----0-----------|----------------|----------------|
B|----4-----------|----0-----------|----------------|----------------|
G|----6---------2-|----2-----------|--------------4-|----4---4-4-4-4-|
D|6---6---------2-|----2-----------|2---2---2-2---4-|----4---4-4-4-4-|
A|4---4---------0-|----0-----------|2---2---2-2---2-|----2---2-2-2-2-|
E|4---4-----------|----------------|0---0---0-0-----|----------------|

e|----4-----------|----0-----------|----------------|----------------|
B|----4-----------|----0-----------|----------------|----------------|
G|----6---------2-|----2-----------|----------------|------4---4-4-4-|
D|6---6---------2-|----2-----------|4---4---4-4---2-|--2-2-4---4-4-4-|
A|4---4---------0-|----0-----------|4---4---4-4---2-|--2-2-2---2-2-2-|
E|4---4-----------|----------------|2---2---2-2---0-|--0-0-----------|

e|----4-----------|----0-----------|----------------|----------------|
B|----6-----------|----0-----------|----------------|----------------|
G|----6---------2-|----2-----------|--------------4-|--4-4---4-4-6---|
D|----6---------2-|----2-----------|2---2---2-2---4-|--4-4---4-4-6---|
A|----4---------0-|----0-----------|2---2---2-2---2-|--2-2---2-2-4---|
E|----4-----------|----------------|0---0---0-0-----|------------4---|

e|----------------|----------------|
B|----------------|----------------|
G|7-------------2-|--2-2-----------|
D|7-------------2-|--2-2-2---2-2---|
A|5-------------0-|--0-0-2---2-2---|
E|5---------------|------0---0-0---|


Verso x4

e|----------------|----------------|----------------|----------------|
B|----------------|----------------|----------------|----------------|
G|------6---4-----|--8---9---4-4---|--8---9---4-4---|--6---11--8-8\--|
D|------x---x-----|--x---x---x-x---|--x---x---x-x---|--x---x---x-x---|
A|4-4-4-4---2---7-|7-6---7---2-2-0-|0-6---7---2-2-2-|2-4---9---6-6\--|
E|----------------|----------------|----------------|----------------|


Refrão

e|----------------|
B|----------------|
G|----------------|
D|<     PH     >6-|
A|4-4-4-4-4-4-4-4-|
E|--------------4-|

e|----4-----------|----0-----------|----------------|----------------|
B|----4-----------|----0-----------|----------------|----------------|
G|----6---------2-|----2-----------|--------------4-|----4---4-4-4-4-|
D|----6---------2-|----2-----------|2---2---2-2---4-|----4---4-4-4-4-|
A|----4---------0-|----0-----------|2---2---2-2---2-|----2---2-2-2-2-|
E|----4-----------|----------------|0---0---0-0-----|----------------|

e|----4-----------|----0-----------|----------------|----------------|
B|----4-----------|----0-----------|----------------|----------------|
G|----6---------2-|----2-----------|----------------|------4---4-4-4-|
D|6---6---------2-|----2-----------|4---4---4-4---2-|--2-2-4---4-4-4-|
A|4---4---------0-|----0-----------|4---4---4-4---2-|--2-2-2---2-2-2-|
E|4---4-----------|----------------|2---2---2-2---0-|--0-0-----------|

e|----4-----------|----0-----------|----------------|----------------|
B|----6-----------|----0-----------|----------------|----------------|
G|----6---------2-|----2-----------|--------------4-|--4-4---4-4-6---|
D|----6---------2-|----2-----------|2---2---2-2---4-|--4-4---4-4-6---|
A|----4---------0-|----0-----------|2---2---2-2---2-|--2-2---2-2-4---|
E|----4-----------|----------------|0---0---0-0-----|------------4---|

e|----------------|----------------|----------------|----------------|
B|----------------|----------------|----------------|----------------|
G|7-------------2-|--2-2-----------|----------------|----------------|
D|7-------------2-|--2-2-2---2-2---|4---4---4---4---|5-5-5-5-77777777|
A|5-------------0-|--0-0-2---2-2---|4---4---4---4---|5-5-5-5-77777777|
E|5---------------|------0---0-0---|2---2---2---2---|3-3-3-3-55555555|


Ponte x2
   
e|----------------|----------------|----------------|---- -- -- -- -- ----|
B|----------------|----------------|----------------|---- -- -- -- -- ----|
G|----------------|----------------|----------------|---------------------|
D|6-9-6-----9-9-6-|--9-6-----9-9-6-|--9-6-----9-9-6-|--11 11 6- 11 12 12\-|
A|4-7-4-----7-7-4-|--7-4-----7-7-4-|--7-4-----7-7-4-|--9- 9- 4- 9- 10 10\-|
E|4-7-4-----7-7-4-|--7-4-----7-7-4-|--7-4-----7-7-4-|--9- 9- 4- 9- 10 10\-|

e|----------------|----------------|------ -- -- -- -- --|---------- -- -- --|
B|----------------|----------------|------ -- -- -- -- --|---------- -- -- --|
G|9---9---9-9-9-8-|----8---8-8-8---|11--11 11 11 11 11 10|----10--10 10 10 10|
D|x---x---x-x-x-x-|----x---x-x-x---|x---x- x- x- x- x- x-|----x---x- x- x- x-|
A|7---7---7-7-7-6-|----6---6-6-6---|9---9- 9- 9- 9- 9- 8-|----8---8- 8- 8- 8-|
E|5---5---5-5-5-4-|----4---4-4-4---|7---7- 7- 7- 7- 7- 9-|----9---9- 9- 9- 9-|

e|----------------|----------------|----------------|---- -- -- -- -- ----|
B|----------------|----------------|----------------|---- -- -- -- -- ----|
G|9---9---9-9-9-8-|----8---8-8-8---|----------------|---------------------|
D|x---x---x-x-x-x-|----x---x-x-x---|6-9-6-----9-9-6-|--11 11 6- 11 12 12\-|
A|7---7---7-7-7-6-|----6---6-6-6---|4-7-4-----7-7-4-|--9- 9- 4- 9- 10 10\-|
E|5---5---5-5-5-7-|----7---7-7-7---|4-7-4-----7-7-4-|--9- 9- 4- 9- 10 10\-|

e|----------------|----------------|------ -- -- -- -- --|---------- -- -- --|
B|----------------|----------------|------ -- -- -- -- --|---------- -- -- --|
G|9---9-9-9-9-9-8-|--8-8-8-8-8-8-8-|11--11 11 11 11 11 10|----10--10 10 10 10|
D|x---x-x-x-x-x-x-|--x-x-x-x-x-x-x-|x---x- x- x- x- x- x-|----x---x- x- x- x-|
A|7---7-7-7-7-7-6-|--6-6-6-6-6-6-6-|9---9- 9- 9- 9- 9- 8-|----8---8- 8- 8- 8-|
E|5---5-5-5-5-5-4-|--4-4-4-4-4-4-4-|7---7- 7- 7- 7- 7- 9-|----9---9- 9- 9- 9-|

e|----------------|---- -- -- -- -- ----|----------------|----------------|
B|----------------|---- -- -- -- -- ----|----------------|----------------|
G|9---9-9-9-9-9-11|--11 11 11 11 11 11\-|------6---4-----|--8---9---------|
D|x---x-x-x-x-x-x-|--x- x- x- x- x- x---|----------------|----------9-9\--|
A|7---7-7-7-7-7-9-|--9- 9- 9- 9- 9- 9-\-|4-4-4---4---4-7-|7---7---7-------|
E|5---5-5-5-5-5-7-|--7- 7- 7- 7- 7- 7-\-|----------------|----------------|

Refrão

e|----4-----------|----0-----------|----------------|----------------|
B|----6-----------|----0-----------|----------------|----------------|
G|----6---------2-|----2-----------|--------------4-|----4---4-4-6---|
D|----6---------2-|----2-----------|2---2---2-2---4-|----4---4-4-6---|
A|----4---------0-|----0-----------|2---2---2-2---2-|----2---2-2-4---|
E|----4-----------|----------------|0---0---0-0-----|----------------|

e|----4-----------|----0-----------|----------------|----------------|
B|----4-----------|----0-----------|----------------|----------------|
G|----6---------2-|----2-----------|----------------|------4---4-4-4-|
D|6---6---------2-|----2-----------|4---4---4-4---2-|--2-2-4---4-4-4-|
A|4---4---------0-|----0-----------|4---4---4-4---2-|--2-2-2---2-2-2-|
E|4---4-----------|----------------|2---2---2-2---0-|--0-0-----------|

e|----4-----------|----0-----------|----------------|----------------|
B|----6-----------|----0-----------|----------------|----------------|
G|----6---------2-|----2-----------|--------------4-|--4-4---4-4-6---|
D|----6---------2-|----2-----------|2---2---2-2---4-|--4-4---4-4-6---|
A|----4---------0-|----0-----------|2---2---2-2---2-|--2-2---2-2-4---|
E|----4-----------|----------------|0---0---0-0-----|------------4---|

e|----------------|----------------|
B|----------------|----------------|
G|7-------------2-|--2-2-----------|
D|7-------------2-|--2-2-2---2-2---|
A|5-------------0-|--0-0-2---2-2---|
E|5---------------|------0---0-0---|

e|----4-----------|----0-----------|----------------|----------------|
B|----4-----------|----0-----------|----------------|----------------|
G|----6---------2-|----2-----------|--------------4-|----4---4-4-4-4-|
D|6---6---------2-|----2-----------|2---2---2-2---4-|----4---4-4-4-4-|
A|4---4---------0-|----0-----------|2---2---2-2---2-|----2---2-2-2-2-|
E|4---4-----------|----------------|0---0---0-0-----|----------------|

e|----4-----------|----0-----------|----------------|----------------|
B|----4-----------|----0-----------|----------------|----------------|
G|----6---------2-|----2-----------|----------------|------4---4-4-4-|
D|6---6---------2-|----2-----------|4---4---4-4---2-|--2-2-4---4-4-4-|
A|4---4---------0-|----0-----------|4---4---4-4---2-|--2-2-2---2-2-2-|
E|4---4-----------|----------------|2---2---2-2---0-|--0-0-----------|

e|----4-----------|----0-----------|----------------|----------------|
B|----6-----------|----0-----------|----------------|----------------|
G|----6---------2-|----2-----------|--------------4-|--4-4---4-4-6---|
D|----6---------2-|----2-----------|2---2---2-2---4-|--4-4---4-4-6---|
A|----4---------0-|----0-----------|2---2---2-2---2-|--2-2---2-2-4---|
E|----4-----------|----------------|0---0---0-0-----|------------4---|

e|----------------|----------------|
B|----------------|----------------|
G|7-------------2-|--2-2-----------|
D|7-------------2-|--2-2-2---2-2---|
A|5-------------0-|--0-0-2---2-2---|
E|5---------------|------0---0-0---|

e|----------------|----------------|----------------|----------------|
B|----------------|----------------|----------------|----------------|
G|----------------|----------------|----------------|----------------|
D|6-9-6-----9-9-6-|--9-6-----9-9-6-|--9-6-----9-9-6-|--9-6-----------|
A|4-7-4-----7-7-4-|--7-4-----7-7-4-|--7-4-----7-7-4-|--7-4-----------|
E|4-7-4-----7-7-4-|--7-4-----7-7-4-|--7-4-----7-7-4-|--7-4-----------|
Composição de Dan Estrin / Douglas Robb
Colaboración y revision:
  • Vinicius Leite
71 reproducciones
    • ½ Tono
    • A
    • Bb
    • B
    • C
    • Db
    • D
    • Eb
    • E
    • F
    • F#
    • G
    • Ab
  • Adicionar à lista

    0 comentarios

    Ver todos os comentários

    ¿Conseguiste tocar?

    0 Tocaram 0 Ainda não

    Grave um vídeo tocando Just One e nos envie!

    00:00 / 00:00
    outros vídeos desta música
    repetir qualidade Automático
    Outros vídeos desta música
    00:00 / 00:00
    Automático
    OK