Cifra Club

Aprenda

Look Where We Are

Hoobastank

Tablatura: Principal (guitarra)
tono: F
Album: Every Man For Himself
Tuning: Drop D

INTRO:
e|-------------------------------|
B|-------------------------------|
G|----7h10p7-5---------------5/7-|
D|-------------7-5---5h6p5-------| (x3)
A|-----------------8-------8-----|
D|-\0----------------------------|

e|---------------------------9b--|
B|-------------------------------|
G|----7h10p7-5-------------------|
D|-------------7-5---5h6p5-------| 
A|-----------------8-------8-----|
D|--0----------------------------|

e|-------------------------------|
B|-------------------------------|
G|----7h10p7-5---------------5/7-|
D|-------------7-5---5h6p5-------| (x2)
A|-----------------8-------8-----|
D|--0----------------------------|

e|-------------------------------|
B|-------------------------------|
G|----7h10p7-5---------------5/7-|
D|-------------7-5---5h6p5-------| 
A|-----------------8-------8-----|
D|--8----------------------------|

e|-------------------------------|
B|-------------------------------|
G|----7h10p7-5---------------7/9-|
D|-------------7-5---5h6p5-------| 
A|-----------------8-------8-----|
D|-11----------------------------|

PRE-CHORUS:
e|---------------------------------------------|
B|---------------------------------------------|
G|-77-x-7-777-77-x-7-777-33-x-3-333-55-x-5-555-|
D|-77-x-7-777-77-x-7-777-33-x-3-333-55-x-5-555-| (x2)
A|-55-x-5-555-55-x-5-555-11-x-1-111-33-x-3-333-|
D|---------------------------------------------|

CHORUS:
e|-----------------------------------------|
B|-----------------------------------------|
G|-77-7-7777-55-5-5555------------33-------|
D|-77-7-7777-55-5-5555-55-x-5-555-33-3-3-3-|
A|-55-5-5555-33-3-3333-55-x-5-555-11-3-3-3-|
D|---------------------55-x-5-555----3-3-3-|

And that's pretty much the whole song. It bassically repeats what I tabbed above.

Feel free to comment/rate.
Composição de Douglas Robb
34 reproducciones
    • ½ Tono
    • A
    • Bb
    • B
    • C
    • Db
    • D
    • Eb
    • E
    • F
    • F#
    • G
    • Ab
  • Adicionar à lista

    0 comentarios

    Ver todos os comentários

    ¿Conseguiste tocar?

    0 Tocaram 0 Ainda não

    Grave um vídeo tocando Look Where We Are e nos envie!

    00:00 / 00:00
    outros vídeos desta música
    repetir qualidade Automático
    Outros vídeos desta música
    00:00 / 00:00
    Automático
    OK