Cifra Club

Aprenda

Losing my grip

Hoobastank

Tablatura: Principal (guitarra)
tono: A
drop d (cappo on 2nd fret)

INTRO I
swelled w/delay,phaser
e||-------------------------------------||
b||-------------------------------------||
g||--10-(10)----9--(9)-10-(10)--9--(9)--||
d||--10-(10)---10-(10)-10-(10)-10-(10)--||
a||---8--(8)----8-------8--(8)----------||
d||---0--(0)---(0)------0--(0)----------||1x

INTRO II
strum w/delay,phaser                             fill
e||-----------------------------------------||   ||--------------------||
b||-----------------------------------------||   ||--------------------||
g||--10----9---10----9---10----9---10----9--||   ||--s12-(12)--s6-(6)--||
d||--10---10---10---10---10---10---10---10--||   ||--s12-(12)--s6-(6)--||
a||---8----8----8----8----8---------8-------||   ||--s10-(10)--s4-(4)--||
d||---0~~~~~~~~~~~~~~~----8~~~~~----8~~~~---||2x ||--s10-(10)--s4-(4)--||1x

MAIN
w/distortion
e||-----------------------------------||
b||-----------------------------------||
g||-----------------------------------||
d||----7-8---7------------------------||
a||--5-----5---8-0-7-8-0-7-8-0-8-7-5--||
d||-----------------------------------||4x

VERSE
w/distortion
e||-----------------------------------||
b||-----------------------------------||
g||-----------------------------------||
d||----7-8---7------------------------||
a||--5-----5---8-0-7-8-0-7-8-0-8-7-5--||
d||-----------------------------------||4x
pm   . . . . . . . . . . . . . . . .

PRE CHORUS                         CHORUS
strum w/distortion                 w/distortion
e||--3----------------2-------||   ||-----------------------------||
b||--3----------------2-------||   ||-----------------------------||
g||--5----------------4-------||   ||-----------------------------||
d||--5----6-----8-----4----6--||   ||--8-----4-----6-----4-----8--||
a||--3----4-----6-----2----4--||   ||--6-----2-----4-----2-----4--||
d||-------4-----6----------4--||1x ||--6-----2-----6-----2-----4--||2x

VERSE 8x
PRE CHORUS 1x
CHORUS 2x

BRIDGE I
w/distortion
e||-----------------------------------------------------------------||
b||-----------------------------------------------------------------||
g||-----------------------------------------------------------------||
d||----4-5---4-5---5-4---4-5---4---4-5---5-4---4-5---4-5---4-5-4----||
a||--5-----5-----5-----5-----5---5-----5-----5-----5-----5-------7--||
d||-----------------------------------------------------------------||1x
pm   . . . . . . . . . . . . . . . . . . . . . . . . . . . . . . .

BRIDGE II
e||-------------------------------------------------------------------||
b||-------------------------------------------------------------------||
g||-------------------------------------------------------------------||
d||----4-5---4-5---4-5---4-5---4--------------------------------------||
a||--5-----5-----5-----5-----5---5-7-8-5-7-8-5-7-8-5-7-8-5-7-8-5-7-8--||
d||-------------------------------------------------------------------||1x
pm   . . . . . . . . . . . . . . . . . . . . . . . . . . . . . . . .

BRIDGE I 1x

fill
w/distortion
e||---------------------------*12--||
b||--------------------------------||
g||--------------------------------||
d||--------------------------------||
a||--3--------s5-------------------||
d||--3--------s5-------------------||

END CHORUS                            BREAKDOWN
w/distortion                          w/distortion
e||-------------------------||        ||---------------------------------------||
b||-------------------------||        ||---------------------------------------||      
g||-------------------------||        ||-------9---10s9s10----11----12-----14--||              
d||--9----5---------5----7--||        ||-------x----x-x--x-----x-----x------x--||             
a||--7----3----0----3----5--||        ||-------7----8s7s-8-----9----10-----12--||              
d||--7----3----0----3----5--||til end ||--s///---------------------------------||1x

thts it!, just peice the riffs together!
cheers
68 reproducciones
    • ½ Tono
    • A
    • Bb
    • B
    • C
    • Db
    • D
    • Eb
    • E
    • F
    • F#
    • G
    • Ab
  • Adicionar à lista

    0 comentarios

    Ver todos os comentários

    ¿Conseguiste tocar?

    0 Tocaram 0 Ainda não

    Grave um vídeo tocando Losing my grip e nos envie!

    00:00 / 00:00
    outros vídeos desta música
    repetir qualidade Automático
    Outros vídeos desta música
    00:00 / 00:00
    Automático
    OK