Cifra Club

Aprenda

Out Of Control

Hoobastank

Tablatura: Principal (guitarra)
tono: A
Tuning: Open E (low to high E B E G# B E)
All the parts to the song are here.  
Since a lot of them repeat, just listen to the song for the order. 


-x----------------------------------------------------------------------------
-x----------------------------------------------------------------------------
-x-11-11-11-11--10-10-10-10--8-8-8-8------------------------------------------
-x-x--x--x--x---x--x--x--x---x-x-x-x--5-5-5-5---------------------------------
-x-8--8--8--8---7--7--7--7---5-5-5-5--5-5-5-5---------------------------------
-x------------------------------------5-5-5-5---------------------------------
 Intro/Verse                                                                  

------------------------------------------------------------------------------
------------------------------------------------------------------------------
------------------------------------------------------------------------------
-0-0-0-2-3-2-0-0-2-3-2-0-3-3-3--0-0-0-2-3-2-0-0-2-3-2-0-1-1-1-----------------
-0-0-0-2-3-2-0-0-2-3-2-0-1-1-1--0-0-0-2-3-2-0-0-2-3-2-0-1-1-1-----------------
-0-0-0-2-3-2-0-0-2-3-2-0--------0-0-0-2-3-2-0-0-2-3-2-0-1-1-1-----------------
 Chorus                                                                       

------------------------------------------------------------------------------
------------------------------------------------------------------------------
------8-8-8-8-8-----11-11-11-11-11--------------------------------------------
-0-0/-x-x-x-x-x-8-8-x--x--x--x--x--3-3-3-3-3-3-3-/-7-7-7-8-10-10-10-----------
-0-0/-5-5-5-5-5-8-8-8--8--8--8--8--3-3-3-3-3-3-3-/-7-7-7-8-10-10-10-----------
-0-0/-----------8-8----------------3-3-3-3-3-3-3-/-7-7-7-8-10-10-10-----------
 "Go! Where Should I go?"....                                                 

------------------------------------------------------------------------------
------------------------------------------------------------------------------
------8-8-8-8-8-----11-11-11-11-11--------------------------------------------
-0-0/-x-x-x-x-x-8-8-x--x--x--x--x--7-7-7-7-7-7-7-7-/-10-10-10-10-10-10-10-10--
-0-0/-5-5-5-5-5-8-8-8--8--8--8--8--7-7-7-7-7-7-7-7-/-10-10-10-10-10-10-10-10--
-0-0/-----------8-8----------------7-7-7-7-7-7-7-7-/-10-10-10-10-10-10-10-10--
                                                                              

------------------------------------------------------------------------------
------------------------------------------------------------------------------
------------------------------------------------------------------------------
-0----8----3----7-------------------------------------------------------------
-0----8----3----7-------------------------------------------------------------
-0----8----3----7-------------------------------------------------------------
 Short interlude in 2nd chorus.  Let all chords ring.                         


------------------------------------------------------------------------------
------------------------------------------------------------------------------
------------------------------------------------------------------------------
-0-0-2-3-2-0-0--2-3-2-0-3-3-3--0-0-2-3-2-0-0--2-3-2-0-1-1-1-------------------
-0-0-2-3-2-0-0--2-3-2-0-1-1-1--0-0-2-3-2-0-0--2-3-2-0-1-1-1-------------------
-0-0-2-3-2-0-0--2-3-2-0--------0-0-2-3-2-0-0--2-3-2-0-1-1-1-------------------
 Bridge                                                                       

------------------------------------------------------------------------------
------------------------------------------------------------------------------
-----8-8-8-8-8-8-8-/-6-6-6-/-9-9-----8-8-8-8-8-8-8-/-6-6-6-/-9-9--------------
-0-0-----------------------------0-0------------------------------------------
-0-0-----------------------------0-0------------------------------------------
-0-0-----------------------------0-0------------------------------------------
 Bridge cont.  "I'm spinning out of control, out of control."                 


Back to chorus, interlude, chorus and your finished.





========
Versão 2
-======-

Tuning: Drop D - D A D G B e

Intro/Verse:
e|-------------------------------------------|
B|-------------------------------------------|
G|--12-12-12-12-11-11-11-11-9-9-9-9----------|
D|--12-12-12-12-11-11-11-11-9-9-9-9-7-7-777--| x4
A|----------------------------------7-7-777--|
D|-------------------------------------------|

Pre-Chorus:
e|-------------------------------------------|
B|-------------------------------------------|
G|--------------5555-------------3333--------|
D|--2222554422225555-2222554422223333--------|
A|--2222554422223333-2222554422221111--------|
D|--222255442222-----222255442222------------|

Chorus:
e|------0000----3333-------------------------|
B|-------------------------------------------|
G|----------5555------------44445577---------|
D|--2222----5555----5555555544445577---------| x2
A|--2222----3333----5555555522223355---------|
D|--2222------------55555555-----------------|

Verse

0:57
e|--333333332222222200000000~----------------|
B|-------------------------------------------|
G|-------------------------------------------|
D|-------------------------------------------|
A|-------------------------------------------|
D|-------------------------------------------|

Pre-Chorus

Chorus

1:22
e|-------------------------------------------|
B|-------------------------------------------|
G|--------------5~----------------------4~---|
D|--2~----------5~----------5~----------4~---|
A|--2~----------3~----------5~----------2~---|
D|--2~----------------------5~---------------|

Chorus

Bridge:
e|-------------------------------------------|
B|-------------------------------------------|
G|--------------5555-------------------------|
D|--22--554422225555--22--554422223333-------| x2
A|--22--554422223333--22--554422223333-------|
D|--22--55442222------22--554422223333-------|

e|------0000000---1111-----------------------|
B|-------------333---------------------------|
G|-------------------------------------------|
D|--2-2--------------------------------------| x4
A|--2-2--------------------------------------|
D|--2-2--------------------------------------|

Pre-Chorus

Chorus

Pre-Chorus (Outro)
Composição de Dan Estrin / Douglas Robb
139 reproducciones
    • ½ Tono
    • A
    • Bb
    • B
    • C
    • Db
    • D
    • Eb
    • E
    • F
    • F#
    • G
    • Ab
  • Adicionar à lista

    0 comentarios

    Ver todos os comentários

    ¿Conseguiste tocar?

    1 Tocaram 0 Ainda não

    Grave um vídeo tocando Out Of Control e nos envie!

    00:00 / 00:00
    outros vídeos desta música
    repetir qualidade Automático
    Outros vídeos desta música
    00:00 / 00:00
    Automático
    OK