Cifra Club

So Close, So Far

Hoobastank

Tablatura: Principal (guitarra)
Tom: C
a música começa somente com a bateria, em seguida, a guita e depois a voz,,
PARA FACILITAR, coloco os riffs numerados::


** RIFF 01

e|-3----3----3----3----------|---3----3----3----3----3/5/3|
B|---------------------------|----------------------------|       
G|---5----5----5----5--------------4----4----4----4-------|   2x   
D|---------------------------|----------------------------|    
A|---------------------------|----------------------------|
E|---------------------------|----------------------------|


** RIFF 02


e|-5----5----5----5----------|---3----3----3----3---------|   
B|---------------------------|----------------------------|          
G|---5----5----5----5--------------4----4----4----4-------|      
D|---------------------------|----------------------------|        
A|---------------------------|----------------------------|
E|---------------------------|----------------------------|       

e|-4----4----4----4----------|---3----3----3----3---------|
B|---------------------------|----------------------------|       
G|---5----5----5----5--------------4----4----4----4-------|     
D|---------------------------|----------------------------|    
A|---------------------------|----------------------------|
E|---------------------------|----------------------------|

Aqui nesse techo inicial >> *Riff 01*

I wake up all alone, somewhere unfamiliar.
Been gone so many days, I'm losing count.

agora, *Riff 02* até o Refrão

When I think of home, I see your face.
I know I have to wait…

(Refrão)

C             Em 
So close, yet so far
      Am 
It's tearing me apart
D#                 F
What I would do to be there with you
C             Em 
So close yet so far
      Am
It's tearing me apart
D#                 F
What I would do to be back with you

*Riff 01*
I miss hearing your laughter
And all the little things
Forgotten what it's like to hold you

*Riff 02*
Cause where I am right now so unforgiving
It's numbing everything

(Refrão)

e|---------------------------|----------------------------|   
B|---8-8-10-10-8-8-6--6-5h6p5|--8-8-10-10-8-8-6--6-5h6p5--|          
G|--------------------------------------------------------|      
D|---------------------------|----------------------------|        
A|---------------------------|----------------------------|
E|---------------------------|----------------------------|       

e|---------------------------|----------------------------|
B|-8-8-10-10-8-8-6--6-5h6p5--|--8-8-10-10-8-8-10----------|       
G|--------------------------------------------------------|     
D|---------------------------|----------------------------|    
A|---------------------------|----------------------------|
E|---------------------------|----------------------------|

So promise
No matter how long it takes for me to get back to you
You'll wait for me.

e|---------------------------|----------------------------|
B|-8----8----8----8H10P8-----|---8----8----8----8H10P8----|     
G|--------------------------------------------------------|     
D|---10----10----10----10----|-----10----10----10----10---|    
A|---------------------------|----------------------------|
E|---------------------------|----------------------------|

e|---------------------------|----------------------------|
B|-----8H10P8----------------|-----8H10P8-----------------|     
G|------------10----------------------------10------------|     
D|--------------------------------------------------------|    
A|---------------------------|----------------------------|
E|---------------------------|----------------------------|

I Promise
No matter how far away I go I'll come back for you
Just wait and see

e|-3----3----3----3----------|---3----3----3----3---------|
B|---------------------------|----------------------------|       
G|---5----5----5----5--------------4----4----4----4-------|    
D|---------------------------|----------------------------|    
A|---------------------------|----------------------------|
E|---------------------------|----------------------------|

e|-4----4----4----4----------|---3----3----3----3---------|
B|---------------------------|----------------------------|       
G|---5----5----5----5--------------4----4----4----4-------|     
D|---------------------------|----------------------------|    
A|---------------------------|----------------------------|
E|---------------------------|----------------------------|

I miss being at home
I miss your face
Don't think I can wait...

       C             Em  
We're So close, yet so far
       Am
It's tearing me apart
D#                 F
What I would do to be there with you
C            Em
So close yet so far
      
It's tearing me apart

What I would do to be back with you

(repita os mesmos acordes do refrão)
I promise,
It's tearing me apart
No matter how far away I go I'll come back for you
I promise
Its tearing me apart

D#              F
What I would do-
D#              F
What I would do-
D#                 F               
What I would do to be there with you
reproducciones 191
Acordes para:
    Composição: Doug Ross / Hoobastank / Jeff Blue Colaboración y revision:
    • Homero Kaú

    0 comentarios

    mostrar más comentarios

    ¿Conseguiste tocar?

    2 tocaron 0 aún no

    ¡Graba un vídeo tocando So Close, So Far y envianoslo!

    00:00 / 00:00
    outros vídeos desta música
    repetir qualidade Automático
    Outros vídeos desta música
    00:00 / 00:00
    Automático
    OK