Cifra Club

Too Little Too Late

Hoobastank

Tablatura: Principal (guitarra)
tono: B
Tunning : Drop D (D A D G B E)

NOTE: STRUMMING NOT SHOWN

Hoobastank has a unique and dynamic sound that's not similar to any other band outside. 
This song is a sample of that.

Comments are appreciated.

Intro: (w/warm phaser)
e-------------------------------------------------
b-------------------------------------------------
g-9---9--9-9---9-9-9-9--9---9-9-9-9--9---9-9-9-9--
d-9---9--9-9---9-9-9-9--x---x-x-x-x--x---x-x-x-x--
a-7---7--7-7---7-7-7-7--7---7-7-7-7--7---7-7-7-7--
d-7---7--7-7---7-7-7-7--6---6-6-6-6--6---6-6-6-6--

e------------------------------------------------------
b------------------------------------------------------
g-7---7-7---7--7----7-7-7-7--x---x-x---x--x---x-x-x-x--
d-7---7-7---7--7----7-7-7-7--4---4-4---4--4---4-4-4-4--
a-5---5-5---5--5----5-5-5-5--0---0-0---0--0---0-0-0-0--
d-5---5-5---5--5----5-5-5-5--0---0-0---0--0---0-0-0-0--

(0:08)
e-----------------------------------------------------
b-----------------------------------------------------
g--------------0--------------------------------------
d---------10-------10---------------10-------------7--
a-----8-----------------8-------8-------------5-------
d-7-------------------------7------------5------------


Fill I (2x)
(0:12) (w/heavy distortion)
e------------------------------------------------------------------
b-5----5-----5--5----5--5/7--7\5----5---5--5----5--5/10--10---10---
g-x----x-----x--x----x--x-x--x-x----x---x--x----x--x--x---x----x---
d-2----2-----2--2----2--2/4--4\2----2---2--2----2--2/-7---7----7---
a------------------------------------------------------------------
d------------------------------------------------------------------
                                                                    
e------------------------------------------------------------------
b10---10--10/12-12/13----13--13---13----13\12-----12------12------
g-x----x---x-x--x--x-----x---x----x------x--x------x-------x------- 
d-7----7---7/9--9/10----10--10---10-----10\-9------9-------9-------
a------------------------------------------------------------------
d------------------------------------------------------------------

Verse 1 (2x)
(0:27) (Clean) (You can let ring each chord instead of playing as follow)
e-----------------------------------------------------------
b-----------------------------------------------------------
g-9-----9---9-9---9-9-9-9-9-9--9-----9---9-9---9-9-9-9-9-9--
d-9-----9---9-9---9-9-9-9-9-9--x-----x---x-x---x-x-x-x-x-x--
a-7-----7---7-7---7-7-7-7-7-7--7-----7---7-7---7-7-7-7-7-7--
d-7-----7---7-7---7-7-7-7-7-7--6-----6---6-6---6-6-6-6-6-6--

e-----------------------------------------------------------
b-----------------------------------------------------------
g-7-----7---7-7---7-7-7-7-7-7--x-----x---x-x---x-x-x-x-x-x--
d-7-----7---7-7---7-7-7-7-7-7--4-----4---4-4---4-4-4-4-4-4--
a-5-----5---5-5---5-5-5-5-5-5--0-----0---0-0---0-0-0-0-0-0--
d-5-----5---5-5---5-5-5-5-5-5--0-----0---0-0---0-0-0-0-0-0--

e-----------------------------------------------------------
b-----------------------------------------------------------
g------------------------------7-----7---7-7---7-7-7-7-7-7--
d-3-----3---3-3---3-3-3-3-3-3--7-----7---7-7---7-7-7-7-7-7--
a-3-----3---3-3---3-3-3-3-3-3--5-----5---5-5---5-5-5-5-5-5--
d-3-----3---3-3---3-3-3-3-3-3--5-----5---5-5---5-5-5-5-5-5--

Chorus 1 
(0:50) (w/heavy distortion)
e-----------------------------------------------------------------
b-----------------------------------------------------------------
g-------------------------------------------------7--7--7---7--7--
d-7--7--7---7--7--2--2--2---2--2--5--5--5---5--5--7--7--7---7--7--
a-7--7--7---7--7--2--2--2---2--2--5--5--5---5--5--5--5--5---5--5--
d-7--7--7---7--7--2--2--2---2--2--5--5--5---5--5------------------

e-----------------------------------------------------------------
b-----------------------------------------------------------------
g-------------------------------------------------11--11--11---11-
d-7--7--7---7--7--2--2--2---2--2--5--5--5---5--5---x---x---x----x-
a-7--7--7---7--7--2--2--2---2--2--5--5--5---5--5---9---9---9----9-
d-7--7--7---7--7--2--2--2---2--2--5--5--5---5--5------------------

e-----------------------------------------------------------------
b-----------------------------------------------------------------
g-------------------------------------------------x--x--x---x--x--
d-7--7--7---7--7--2--2--2---2--2--5--5--5---5--5--x--x--x---x--x--
a-7--7--7---7--7--2--2--2---2--2--5--5--5---5--5--x--x--x---x--x--
d-7--7--7---7--7--2--2--2---2--2--5--5--5---5--5------------------

e-----------------------------------------------------------------
b-----------------------------------------------------------------
g--2-2-2-2-2-2-2-2-2-2-2-2-2--------------------------------------
d--0-0-0-0-0-0-0-0-0-0-0-0-0------3--3---3---3-----5--5---5---5---
a--0-0-0-0-0-0-0-0-0-0-0-0-0------3--3---3---3-----5--5---5---5---
d--0-0-0-0-0-0-0-0-0-0-0-0-0------3--3---3---3-----5--5---5---5---

Verse 2 (2x)
(1:06) (clean) (You can let ring each chord instead of playing as follow)
e-----------------------------------------------------------
b-----------------------------------------------------------
g-9-----9---9-9---9-9-9-9-9-9--9-----9---9-9---9-9-9-9-9-9--
d-9-----9---9-9---9-9-9-9-9-9--x-----x---x-x---x-x-x-x-x-x--
a-7-----7---7-7---7-7-7-7-7-7--7-----7---7-7---7-7-7-7-7-7--
d-7-----7---7-7---7-7-7-7-7-7--6-----6---6-6---6-6-6-6-6-6--

e-----------------------------------------------------------
b-----------------------------------------------------------
g-7-----7---7-7---7-7-7-7-7-7--x-----x---x-x---x-x-x-x-x-x--
d-7-----7---7-7---7-7-7-7-7-7--4-----4---4-4---4-4-4-4-4-4--
a-5-----5---5-5---5-5-5-5-5-5--0-----0---0-0---0-0-0-0-0-0--
d-5-----5---5-5---5-5-5-5-5-5--0-----0---0-0---0-0-0-0-0-0--

e-----------------------------------------------------------
b-----------------------------------------------------------
g------------------------------7-----7---7-7---7-7-7-7-7-7--
d-3-----3---3-3---3-3-3-3-3-3--7-----7---7-7---7-7-7-7-7-7--
a-3-----3---3-3---3-3-3-3-3-3--5-----5---5-5---5-5-5-5-5-5--
d-3-----3---3-3---3-3-3-3-3-3--5-----5---5-5---5-5-5-5-5-5--

Chorus 2 (2x)
(1:29) (w/heavy distortion)
e-----------------------------------------------------------------
b-----------------------------------------------------------------
g-------------------------------------------------7--7--7---7--7--
d-7--7--7---7--7--2--2--2---2--2--5--5--5---5--5--7--7--7---7--7--
a-7--7--7---7--7--2--2--2---2--2--5--5--5---5--5--5--5--5---5--5--
d-7--7--7---7--7--2--2--2---2--2--5--5--5---5--5------------------

e------------------------------------------------------------------
b------------------------------------------------------------------
g-------------------------------------------------11--11--11-11-11-
d-7--7--7---7--7--2--2--2---2--2--5--5--5---5--5---x---x---x--x--x-
a-7--7--7---7--7--2--2--2---2--2--5--5--5---5--5---9---9---9--9--9-
d-7--7--7---7--7--2--2--2---2--2--5--5--5---5--5-------------------

e-----------------------------------------------------------------
b-----------------------------------------------------------------
g-------------------------------------------------x--x--x---x--x--
d-7--7--7---7--7--2--2--2---2--2--5--5--5---5--5--x--x--x---x--x--
a-7--7--7---7--7--2--2--2---2--2--5--5--5---5--5--x--x--x---x--x--
d-7--7--7---7--7--2--2--2---2--2--5--5--5---5--5------------------

e-----------------------------------------------------------------
b-----------------------------------------------------------------
g--2-2-2-2-2-2-2-2-2-2-2-2-2--------------------------------------
d--0-0-0-0-0-0-0-0-0-0-0-0-0------3--3---3---3-----5--5---5---5---
a--0-0-0-0-0-0-0-0-0-0-0-0-0------3--3---3---3-----5--5---5---5---
d--0-0-0-0-0-0-0-0-0-0-0-0-0------3--3---3---3-----5--5---5---5---

Bridge: (3x)
(2:00) (w/heavy distortion)
e-----------------------------------------------------------------
b------------------------------19-19------------------------------
g-------------------------------------17-17--14-14------14--------
d---------------------------------------------------16------------
a-2-2-xxx-0-2-2-xx--0-2-------------------------------------17-17-
d-2-2-xxx-0-2-2-xx--0-2-------------------------------------------
                              <------play it fast w/phaser-------> 

(2:12) (1x)   
e----------------------------------------------
b----------------------------------------------
g--------------------14--14-14-14\13--13-------
d---------------------x---x--x--x---x--x-------
a-2-2-xxx-0-2-2-xx---12--12-12-12\11--11-------
d-2-2-xxx-0-2-2-xx-----------------------------


Fill II
(2:16) (w/heavy distortion)
e------------------------------------------------------------------
b-5----5-----5--5----5--5/7--7\5----5---5--5----5--5/10--10---10---
g-x----x-----x--x----x--x-x--x-x----x---x--x----x--x--x---x----x---
d-2----2-----2--2----2--2/4--4\2----2---2--2----2--2/-7---7----7---
a------------------------------------------------------------------
d------------------------------------------------------------------
                                                                    
e------------------------------------------------------------------
b10---10--10/12-12/13----13--13---13----13\12-----12------12------
g-x----x---x-x--x--x-----x---x----x------x--x------x-------x------- 
d-7----7---7/9--9/10----10--10---10-----10\-9------9-------9-------
a------------------------------------------------------------------
d------------------------------------------------------------------

e-----------------------------------------------------------
b-----------------------------------------------------------
g-----------------------------------------------------------
d-3-----3---3-3---3-3-3-3-3-3--7-----7---7-7---7-7-7-7-7-7--
a-3-----3---3-3---3-3-3-3-3-3--5-----5---5-5---5-5-5-5-5-5--
d-3-----3---3-3---3-3-3-3-3-3--5-----5---5-5---5-5-5-5-5-5--

Chorus 3 
(2:27) (w/heavy distortion)
e-----------------------------------------------------------------
b-----------------------------------------------------------------
g-------------------------------------------------7--7--7---7--7--
d-7--7--7---7--7--2--2--2---2--2--5--5--5---5--5--7--7--7---7--7--
a-7--7--7---7--7--2--2--2---2--2--5--5--5---5--5--5--5--5---5--5--
d-7--7--7---7--7--2--2--2---2--2--5--5--5---5--5------------------

e------------------------------------------------------------------
b------------------------------------------------------------------
g-------------------------------------------------11--11--11-11-11-
d-7--7--7---7--7--2--2--2---2--2--5--5--5---5--5---x---x---x--x--x-
a-7--7--7---7--7--2--2--2---2--2--5--5--5---5--5---9---9---9--9--9-
d-7--7--7---7--7--2--2--2---2--2--5--5--5---5--5-------------------

e-----------------------------------------------------------------
b-----------------------------------------------------------------
g-------------------------------------------------x--x--x---x--x--
d-7--7--7---7--7--2--2--2---2--2--5--5--5---5--5--x--x--x---x--x--
a-7--7--7---7--7--2--2--2---2--2--5--5--5---5--5--x--x--x---x--x--
d-7--7--7---7--7--2--2--2---2--2--5--5--5---5--5------------------

e-----------------------------------------------------------------
b-----------------------------------------------------------------
g--2-2-2-2-2-2-2-2-2-2-2-2-2--------------------------------------
d--0-0-0-0-0-0-0-0-0-0-0-0-0------3--3---3---3-----5--5---5---5---
a--0-0-0-0-0-0-0-0-0-0-0-0-0------3--3---3---3-----5--5---5---5---
d--0-0-0-0-0-0-0-0-0-0-0-0-0------3--3---3---3-----5--5---5---5---

2nd time: (2:42)
e-----------------------------------------------------------------
b-----------------------------------------------------------------
g-------------------------------------------------7--7--7---7--7--
d-7--7--7---7--7--2--2--2---2--2--5--5--5---5--5--7--7--7---7--7--
a-7--7--7---7--7--2--2--2---2--2--5--5--5---5--5--5--5--5---5--5--
d-7--7--7---7--7--2--2--2---2--2--5--5--5---5--5------------------

e------------------------------------------------------------------
b------------------------------------------------------------------
g-----------------------------------------------------  *SILENCE*
d-7--7--7---7--7--2--2--2---2--2--5--5--5---5--5-5-5- (yes-ter-day)
a-7--7--7---7--7--2--2--2---2--2--5--5--5---5--5-5-5-
d-7--7--7---7--7--2--2--2---2--2--5--5--5---5--5-5-5---------------

e-----------------------------------------------------------------
b-----------------------------------------------------------------
g-------------------------------------------------x--x--x---x--x--
d-7--7--7---7--7--2--2--2---2--2--5--5--5---5--5--x--x--x---x--x--
a-7--7--7---7--7--2--2--2---2--2--5--5--5---5--5--x--x--x---x--x--
d-7--7--7---7--7--2--2--2---2--2--5--5--5---5--5------------------

e-----------------------------------------------------------------
b-----------------------------------------------------------------
g--2-2-2-2-2-2-2-2-2-2-2-2-2--------------------------------------
d--0-0-0-0-0-0-0-0-0-0-0-0-0------3--3---3---3-----5--5---5---5---
a--0-0-0-0-0-0-0-0-0-0-0-0-0------3--3---3---3-----5--5---5---5---
d--0-0-0-0-0-0-0-0-0-0-0-0-0------3--3---3---3-----5--5---5---5---

Interlude: (2x)
(2:57)
e-----------------------------------------------------------------
b-----------------------------------------------------------------
g--2-2-2-2-2-2-2-2-2-2-2-2-2--------------------------------------
d--0-0-0-0-0-0-0-0-0-0-0-0-0------3--3---3---3-----5--5---5---5---
a--0-0-0-0-0-0-0-0-0-0-0-0-0------3--3---3---3-----5--5---5---5---
d--0-0-0-0-0-0-0-0-0-0-0-0-0------3--3---3---3-----5--5---5---5---

End: (3:05)
e-------
b-------
g--9~---
d--9~---
a--7~---
d--7~---
Composição de Douglas Robb
36 reproducciones
    • ½ Tono
    • A
    • Bb
    • B
    • C
    • Db
    • D
    • Eb
    • E
    • F
    • F#
    • G
    • Ab
  • Adicionar à lista

    0 comentarios

    Ver todos os comentários

    ¿Conseguiste tocar?

    0 Tocaram 0 Ainda não

    Grave um vídeo tocando Too Little Too Late e nos envie!

    00:00 / 00:00
    outros vídeos desta música
    repetir qualidade Automático
    Outros vídeos desta música
    00:00 / 00:00
    Automático
    OK