Cifra Club

Aprenda

What Happened To US?

Hoobastank

Tablatura: Principal (guitarra)
tono: C
Afinação: D (D-G-C-F-A-D)
Introdução/Ponte:    Introdução - 0:05   
D|---------------------------------------------------------------------|
A|---------------------------------------------------------------------|
F|------7-------7-------7-------7-------7-------7-------7-------7------|
C|--------5-------5-------5-------5/4-----4-------4-------4-------4\5--|
G|----------7-------7-------7---------------7-------7-------7----------|
D|--0-0-------0-------0-------0-------0-------0-------0-------0--------|

                                                                  
D|---------------------------------------------------------------------|
A|---------------------------------------------------------------------|
F|------7-------7-------7-------7-------7-------7-------7-------7------|
C|--------5-------5-------5-------5/4-----4-------4-------4-------4----|
G|----------7-------7-------7---------------7-------7-------7----------|
D|----0-------0-------0-------0-------0-------0-------0-------0--------|

0:15
D|---------------------------------------------------------------------|
A|---------------------------------------------------------------------|
F|------0---7---------0---7---------0---7-0------0---7-0---------------|
C|----5---5---5-----5---5---5-----4---4--------4---4-------------------|
G|--3-------------3-------------5------------5-------------------------|
D|---------------------------------------------------------------------|

D|---------------------------------------------------------------------|
A|---------------------------------------------------------------------|
F|------7-------7-------7-------7-------7-------7-------7-------7------|
C|--------5-------5-------5-------5/4-----4-------4-------4-------4----|
G|----------7-------7-------7---------------7-------7-------7----------|
D|----0-------0-------0-------0-------0-------0-------0-------0--------|

0:26
D|-------------------------------------------------------------------|
A|-------------------------------------------------------------------|
F|-------------------------------------------------------------------|
C|------9---9------9---9------9---9------9---9-------9---9-----9---9-|
G|----7---7------7---7------7---7------7---7-------7---7-----7---7---|
D|--0----------0----------0----------0-----------8---------8---------|

D|-------------0-----------------------------------------------------|
A|-------------0-----------------------------------------------------|
F|-------------0-----------------------------------------------------|
C|------7------9-----------------------------------------------------|
G|----7--------7-----------------------------------------------------|
D|--5------10-10-----------------------------------------------------|

D|-------------------------------------------------------------------|
A|-------------------------------------------------------------------|
F|-------------------------------------------------------------------|
C|------9---9------9---9------9---9------9---9-------9---9-----9---9-|
G|----7---7------7---7------7---7------7---7-------7---7-----7---7---|
D|--0----------0----------0----------0-----------8---------8---------|

D|-------------0-----------------------------------------------------|
A|-------------0-----------------------------------------------------|
F|-------------0-----------------------------------------------------|
C|------7------9-----------------------------------------------------|
G|----7--------7-----------------------------------------------------|
D|--5------10-10-----------------------------------------------------|

D|-------------------------------------------------------------------|
A|-------------------------------------------------------------------|
F|-------------------------------------------------------------------|
C|------9---9------9---9------9---9------9---9-------9---9-----9---9-|
G|----7---7------7---7------7---7------7---7-------7---7-----7---7---|
D|--0----------0----------0----------0-----------8---------8---------|

D|-------------0-----------------------------------------------------|
A|-------------0-----------------------------------------------------|
F|-------------0-----------------------------------------------------|
C|------7------9-----------------------------------------------------|
G|----7--------7-----------------------------------------------------|
D|--5------10-10-----------------------------------------------------|

D|-------------------------------------------------------------------|
A|-------------------------------------------------------------------|
F|-------------------------------------------------------------------|
C|------9---9------9---9------9---9------9---9-------9---9-----9---9-|
G|----7---7------7---7------7---7------7---7-------7---7-----7---7---|
D|--0----------0----------0----------0-----------8---------8---------|

D|------------------------------------------------------------------|
A|------------------------------------------------------------------|
F|------------------------------------------------------------------|
C|------7--9-9-9-9-9------------------------------------------------|
G|----7----7-7-7-7-7------------------------------------------------|
D|--5------7-7-7-7-7------------------------------------------------|

Refrão: 1:06
D|----------------------------------------------------------------------|
A|----------------------------------------------------------------------|
F|----------------------------------------------------------------------|
C|--2-2-x-x---5/4/2--5/4/2---2-2-x-x--5/4/2--5/4/2--7-----10-----12-----|
G|--2-2-x-x---5/4/2--5/4/2---2-2-x-x--5/4/2--5/4/2--7-----10-----12-----|
D|--0-0-x-x---3/2/0--3/2/0---0-0-x-x--3/2/0--3/2/0--5-x12--8-x8--10-x8--| X2

1:28
D|-------------------------------------------------------------------|
A|-------------------------------------------------------------------|
F|-------------------------------------------------------------------|
C|------9---9------9---9------9---9------9---9-------9---9-----9---9-|
G|----7---7------7---7------7---7------7---7-------7---7-----7---7---|
D|--0----------0----------0----------0-----------8---------8---------|

D|-------------0-----------------------------------------------------|
A|-------------0-----------------------------------------------------|
F|-------------0-----------------------------------------------------|
C|------7------9-----------------------------------------------------|
G|----7--------7-----------------------------------------------------|
D|--5------10-10-----------------------------------------------------|

D|-------------------------------------------------------------------|
A|-------------------------------------------------------------------|
F|-------------------------------------------------------------------|
C|------9---9------9---9------9---9------9---9-------9---9-----9---9-|
G|----7---7------7---7------7---7------7---7-------7---7-----7---7---|
D|--0----------0----------0----------0-----------8---------8---------|

D|-------------0-----------------------------------------------------|
A|-------------0-----------------------------------------------------|
F|-------------0-----------------------------------------------------|
C|------7------9-----------------------------------------------------|
G|----7--------7-----------------------------------------------------|
D|--5------10-10-----------------------------------------------------|

D|-------------------------------------------------------------------|
A|-------------------------------------------------------------------|
F|-------------------------------------------------------------------|
C|------9---9------9---9------9---9------9---9-------9---9-----9---9-|
G|----7---7------7---7------7---7------7---7-------7---7-----7---7---|
D|--0----------0----------0----------0-----------8---------8---------|

D|-------------0-----------------------------------------------------|
A|-------------0-----------------------------------------------------|
F|-------------0-----------------------------------------------------|
C|------7------9-----------------------------------------------------|
G|----7--------7-----------------------------------------------------|
D|--5------10-10-----------------------------------------------------|

D|-------------------------------------------------------------------|
A|-------------------------------------------------------------------|
F|-------------------------------------------------------------------|
C|------9---9------9---9------9---9------9---9-------9---9-----9---9-|
G|----7---7------7---7------7---7------7---7-------7---7-----7---7---|
D|--0----------0----------0----------0-----------8---------8---------|

D|------------------------------------------------------------------|
A|------------------------------------------------------------------|
F|------------------------------------------------------------------|
C|------7--9-9-9-9-9------------------------------------------------|
G|----7----7-7-7-7-7------------------------------------------------|
D|--5------7-7-7-7-7------------------------------------------------|

1:59 Guitarra 2
D|-------------------------------------------------------------------|
A|-------------------------------------------------------------------|
F|-------------------------------------------------------------------|
C|--2~~~~--4~~~~--5~~~~--7-------------------------------------------|
G|-------------------------------------------------------------------|
D|-------------------------------------------------------------------|

Refrão: 2:10
D|----------------------------------------------------------------------|
A|----------------------------------------------------------------------|
F|----------------------------------------------------------------------|
C|--2-2-x-x---5/4/2--5/4/2---2-2-x-x--5/4/2--5/4/2--7-----10-----12-----|
G|--2-2-x-x---5/4/2--5/4/2---2-2-x-x--5/4/2--5/4/2--7-----10-----12-----|
D|--0-0-x-x---3/2/0--3/2/0---0-0-x-x--3/2/0--3/2/0--5-x12--8-x8--10-x8--| X2

2:35 Guitarra 2
D|--0-----------------------------------------------------|
A|--0-----------------------------------------------------|
F|--0-----------------------------------------------------|
C|--9-----------------------------------------------------|
G|--7-----------------------------------------------------|
D|-10-----------------------------------------------------|

Guitarra 1
D|-------------------------------------------------------------------|
A|-------------------------------------------------------------------|
F|--------7----------7---------7----------7-----------7---------7----|
C|------5---5------5---5---------4----------4-----------4------------|
G|----3----------3-----------5-----5----5-----5-----5-----5----------|
D|--0----------0-----------0----------0-----------0-----------0------|

D|---------------------------------------------------------------------|
A|---------------------------------------------------------------------|
F|------7-------7-------7-------7-------7-------7-------7-------7------|
C|--------5-------5-------5-------5/4-----4-------4-------4-------4----|
G|----------7-------7-------7---------------7-------7-------7----------|
D|----0-------0-------0-------0-------0-------0-------0-------0--------|

 2:56 Guitarra 2 
D|--0-----------------------------------------------------|
A|--0-----------------------------------------------------|
F|--0-----------------------------------------------------|
C|--9-----------------------------------------------------|
G|--7-----------------------------------------------------|
D|-10-----------------------------------------------------|

Guitarra 1
D|-------------------------------------------------------------------|
A|-------------------------------------------------------------------|
F|--------7----------7---------7----------7-----------7---------7----|
C|------5---5------5---5---------4----------4-----------4------------|
G|----3----------3-----------5-----5----5-----5-----5-----5----------|
D|--0----------0-----------0----------0-----------0-----------0------|

D|---------------------------------------------------------------------|
A|---------------------------------------------------------------------|
F|------7-------7-------7-------7-------7-------7-------7-------7------|
C|--------5-------5-------5-------5/4-----4-------4-------4-------4----|
G|----------7-------7-------7---------------7-------7-------7----------|
D|----0-------0-------0-------0-------0-------0-------0-------0--------|

 2:56 Guitarra 2
D|--0-----------------------------------------------------|
A|--0-----------------------------------------------------|
F|--0-----------------------------------------------------|
C|--9-----------------------------------------------------|
G|--7-----------------------------------------------------|
D|-10-----------------------------------------------------|

Guitarra 1
D|-------------------------------------------------------------------|
A|-------------------------------------------------------------------|
F|--------7----------7---------7----------7-----------7---------7----|
C|------5---5------5---5---------4----------4-----------4------------|
G|----3----------3-----------5-----5----5-----5-----5-----5----------|
D|--0----------0-----------0----------0-----------0-----------0------|

D|--------------0----------------------------------------------------|
A|--------------0----------------------------------------------------|
F|---------9----0----------------------------------------------------|
C|-------9-9----9----------------------------------------------------|
G|-5-5\7--------7----------------------------------------------------|
D|-------------10----------------------------------------------------|

3:05
D|-------------------------------------------------------------|
A|-------------------------------------------------------------|
F|-------------------------------------------------------------|
C|----9-9-9-9-9------------------------------------------------|
G|----7-7-7-7-7------------------------------------------------|
D|----7-7-7-7-7------------------------------------------------|

Refrão: 3:07
D|----------------------------------------------------------------------|
A|----------------------------------------------------------------------|
F|----------------------------------------------------------------------|
C|--2-2-x-x---5/4/2--5/4/2---2-2-x-x--5/4/2--5/4/2--7-----10-----12-----|
G|--2-2-x-x---5/4/2--5/4/2---2-2-x-x--5/4/2--5/4/2--7-----10-----12-----|
D|--0-0-x-x---3/2/0--3/2/0---0-0-x-x--3/2/0--3/2/0--5-x12--8-x8--10-x8--| X2

Final 3:27
D|--------------------------------------------------|
A|--------------------------------------------------|
F|--------------------------------------------------|
C|--2-2-x-x---5/4/2--5/4/2---2-2-x-x--5/4/2--5/4/2--|
G|--2-2-x-x---5/4/2--5/4/2---2-2-x-x--5/4/2--5/4/2--|
D|--0-0-x-x---3/2/0--3/2/0---0-0-x-x--3/2/0--3/2/0--| X2
Composição de Dan Estrin / Douglas Robb
Colaboración y revision:
  • Vinicius Leite
40 reproducciones
    • ½ Tono
    • A
    • Bb
    • B
    • C
    • Db
    • D
    • Eb
    • E
    • F
    • F#
    • G
    • Ab
  • Adicionar à lista

    0 comentarios

    Ver todos os comentários

    ¿Conseguiste tocar?

    0 Tocaram 0 Ainda não

    Grave um vídeo tocando What Happened To US? e nos envie!

    00:00 / 00:00
    outros vídeos desta música
    repetir qualidade Automático
    Outros vídeos desta música
    00:00 / 00:00
    Automático
    OK