Cifra Club

Aprenda

Without A Fight

Hoobastank

Tablatura: Principal (guitarra)
tono: A
(intro/pre-chorus)
E |----------------------------------------|
B |----------------------------------------|
G |--------999999999-----99999-------------|
D |----0h2-999999999-0h2-99999-55-12121212-|
A |----0h2-777777777-0h2-77777-55-12121212-|
D |----0h2-----------0h2-------55-12121212-|

The part that goes)
"the clock is counting down..."
Goes like)
E |---------------------|
B |---------------------|
G |---------------------|
D |----4----5----4----5-|
A |----4----5----4----5-|
D |----4----5----4----5-|

(chorus)
E |--------------------------------------------------|
B |--------------------------------------------------|
G |------------7-7777-777------------5-55-55-7-77-77-|
D |-2-2222-222-7-7777-777-7-7777-777-5-55-55-7-77-77-|
A |-2-2222-222-5-5555-555-7-7777-777-3-33-33-5-55-55-|
D |-2-2222-222------------7-7777-777-----------------|

(solo)
E |--------------------------------|
B |--------------------------------|
G |--------------------------------|
D |-2-0-5-0-7-0-9-0-12-0-9-0-12/14-| (x3)
A |-2-0-5-0-7-0-9-0-12-0-9-0-12/14-|
D |-2-0-5-0-7-0-9-0-12-0-9-0-12/14-|

E |-----------|
B |-----------|
G |-77-x-66-x-|
D |-77-x-66-x-|
A |-55-x-44-x-|
D |-----------|

(do that two or three times. then play)
E |---------------------------------------------------------------------------|
B |---------------------------------------------------------------------------|
G |-----------77-x-66-x-------------------------------------------------------|
D |-2-222-222-77-x-66-x-------------------------------------------------------| (x2)
A |-2-222-222-55-x-44-x-------------------------------------------------------|
D |-2-222-222-----------------------------------------------------------------|
-----------------------------------------------------------------------------|
8.dont tell me
----------------------------------------------------------------------------

(the song starts of with just pianos and stuff, and then you start off with)
E |-----------------------------------------------------|
B |-----------------------------------------------------|
G |-------------66666666--------------------------------|
D |----66666666-66666666-444444-6-666-22222222-77777777-|
A |----66666666-44444444-444444-6-666-22222222-77777777-|
D |----66666666----------444444-6-666-22222222-77777777-|
(the chorus is pretty much the same thing, just a bit slower.
chorus)

E |----------------------------------|
B |----------------------------------|
G |---------6666---------------------|
D |----6666-6666-444-6-666-2222-7777-| (x2)
A |----6666-4444-444-6-666-2222-7777-|
D |----6666------444-6-666-2222-7777-|

(the pre-chorus is just the piano again.
Right before the chorus, play)
E |-------------|
B |-------------|
G |-------------|
D |----11111111-|
A |----11111111-|
D |----11111111-|
       ....... p.m.

(then add this to the end of the chorus)
E |----------------------------------|
B |----------------------------------|
G |----------------------------------|
D |----99999999-2222-7777-99999999-1-|
A |----99999999-2222-7777-99999999-1-|
D |----99999999-2222-7777-99999999-1-|

(solo)
E |-----------------------------------------11b-14-13-14-13-14-15b-|
B |----99----77---------------9-----9-11-12------------------------|
G |-------88----66-66-44-6-66---8-8--------------------------------|
D |----------------------------------------------------------------| (x2)
A |----------------------------------------------------------------|
D |----------------------------------------------------------------|

(after the solo play)
E |-----------------------|
B |-----------------------|
G |-----------------------|
D |----66666666-444-6-666-| (x3)
A |----66666666-444-6-666-|
D |----66666666-444-6-666-|

(then after the third time play)
E |-------------------|
B |-------------------|
G |-----------------6-|
D |----66666666-444-6-|
A |----66666666-444-4-|
D |----66666666-444---|

(then repeat the chorus 4 times. add this to the end)
E |-----------------------|
B |-----------------------|
G |-----------------------|
D |----99999999-2222-7777-| (x2)
A |----99999999-2222-7777-|
D |----99999999-2222-7777-|

E |---------------------------------------------------------------------------|
B |---------------------------------------------------------------------------|
G |---------------------------------------------------------------------------|
D |----55555555-77777777-9----------------------------------------------------|
A |----55555555-77777777-9----------------------------------------------------|
D |----55555555-77777777-9----------------------------------------------------|
Composição de Douglas Robb
Colaboración y revision:
  • Magali Silva
40 reproducciones
    • ½ Tono
    • A
    • Bb
    • B
    • C
    • Db
    • D
    • Eb
    • E
    • F
    • F#
    • G
    • Ab
  • Adicionar à lista

    0 comentarios

    Ver todos os comentários

    ¿Conseguiste tocar?

    0 Tocaram 0 Ainda não

    Grave um vídeo tocando Without A Fight e nos envie!

    00:00 / 00:00
    outros vídeos desta música
    repetir qualidade Automático
    Outros vídeos desta música
    00:00 / 00:00
    Automático
    OK