Cifra Club

Come Anytime

Hoodoo Gurus

Cifrado: Principal (guitarra y guitarra eléctrica)
Já pensou em usar uma coleção de roupas do Cifra Club? Responda as perguntas abaixo e nos ajude nessa missão! →
tono: G
4x RIFF
     A           Em    G
E|--0--0--0--0--0--0--3--3--3---|
B|--2--3--2--0--0--0--3--3--3---|
G|--2--2--2--0--0--0--0--0--0---|
D|--2--2--2--0--2--2--0--0--0---|
A|--0--0--0-----2--2--2--2--2---|
E|--------------0--0--3--3--3---|

     A           Em G     A           Em G 
E|--------------------|--------------------------|
B|--------------------|--------------------------|
G|--------------------|--------------------------|
D|--------------------|--------------------------|
A|--------5-----------|--------5-----------2-----|
E|--3--5-----5--0--3--|--3--5-----5--0--3-----5--|

A              Em        G
What is it you want from me? 
A                Em        G
There isn't much I will not do
A            Em    G 
If it's only company 
A                 Em        G
You know, I might need that too. 
Won't you 

D        G             Am
 Come anytime (come anytime)
      Em
I'm a man of leisure
D        G             Am
 Come anytime, (come anytime)
  Em
I await your pleasure

A                 Em            G
There's nothing new beneath the sun 
A                    Em       G
We've butchered every sacred cow 
A                 Em         G
Don't tell me about all the things you might have done 
A                     Em        G
Just tell me what are you doing now - right now

D        G             Am
 Come anytime, (come anytime)
  Em
I await your pleasure
D        G             Am
 Come anytime (come anytime)
      Em
I can wait forever  
D           G                 Am   
And if you can't make up your mind 
        Em
We could make it up together

     A           Em    G
E|--0--0--0--0--0--0--3--3--3---|
B|--2--3--2--0--0--0--3--3--3---|
G|--2--2--2--0--0--0--0--0--0---|
D|--2--2--2--0--2--2--0--0--0---|
A|--0--0--0-----2--2--2--2--2---|
E|--------------0--0--3--3--3---|

( A G Bm )

A                G      Bm    A    G Bm
Things like this happen every day 
A        G        Bm   
Whatever happens, it's O.K. 
Em          A Em                A
Why be afraid when we've got it made
Em         G            A
I'll never ask you to explain. 

D        G Am Em
 Come anytime 
D           G                 Am   
 And if you can't make up your mind 
        Em
We could make it up together

A               Em       G
What is it you want from me? 
A               Em      G
You won't shock me easily

     A           Em    G
E|--0--0--0--0--0--0--3--3--3---|
B|--2--3--2--0--0--0--3--3--3---|
G|--2--2--2--0--0--0--0--0--0---|
D|--2--2--2--0--2--2--0--0--0---|
A|--0--0--0-----2--2--2--2--2---|
E|--------------0--0--3--3--3---|

A               Em        G
Maybe it's your heart's desire, 
A                  Em    G
Maybe it's your wildest dream, 
A                   Em    G
Maybe I'm a gun-for-hire but,
A                 Em         G 
Baby, don't we make quite a team, Don't we?
Don't we? 

D        G                 Am                      Em
Come anytime (you're so inclined) I won't give you trouble 
D        G                 Am                      Em
Come anytime (you're going blind) or you're seeing double
D           G             Am                 Em
And I have never been the kind who'd want to Burst your bubble. 

D        G Am Em
Come anytime 
D        G Am Em
Come anytime 
D        G Am Em
Come anytime 
D        G Am Em
Come anytime 
D        G Am Em
Come anytime 
D        G Am Em
Come anytime 

D           G         Am      Em
And if you can't make up your mind
D                G       Am  Em
We could make it up together
D                   G         Am   Em
And if you can't make up your mind
We could make it up together
Composición de David Faulkner
Colaboración y revisión:
  • Aurelio Madrid
  • Alexandre Suêvo
125 vistas
    • ½ Tono
    • A
    • Bb
    • B
    • C
    • Db
    • D
    • Eb
    • E
    • F
    • F#
    • G
    • Ab
  • Agregar a la lista

    0 comentarios

    Ver todos los comentarios

    ¿Lograste tocar?

    3 Tocaron 0 Aún no

    ¡Graba un video tocando Come Anytime y envíanoslo!

    00:00 / 00:00
    Outros vídeos desta música
    Repetir Calidad Automático
    Outros vídeos desta música
    00:00 / 00:00
    Automático
    OK