Cifra Club

Tuckers Town Intro

Hootie & The Blowfish

Cifrado: Principal (guitarra y guitarra eléctrica)
tono: F
Album: Fairweather Johnson
Tuning: Standard
Tabbed By: Little Debbie


Chord used: 
C (x32010)

|-------------------------------------------|
|-------------------------------1-----------|
|-----------0------------0---------0--------|
|-----0h2----------0h2----------------2-----|
|--3-----------3------------3---------------|
|-------------------------------------------|

|-------------------------------0-----------|
|----------------------------------1--------|
|-----------0------------0------------0-----|
|-----0h2----------0h2----------------------|
|--3-----------3------------3---------------|
|-------------------------------------------|

*Repeat*

This riff is played throughout the song.
00:00 / 00:00
Otros videos de esta canción
Repetir
Otros videos de esta canción
Compositor no encontrado.
14 exhibiciones
    • ½ Tono
    • A
    • Bb
    • B
    • C
    • Db
    • D
    • Eb
    • E
    • F
    • F#
    • G
    • Ab
  • Agregar a la lista
    00:00 / 00:00
    OK