Cifra Club

Mad About You

Hooverphonic

Cifrado: Principal (guitarra y guitarra eléctrica)
tono: E
[Intro] Bm  A   G  F#  

   Bm           A            G            F#            Em 
E|------------| ------------|------------|-------------|------------|
B|-------3----| -------2----|-------3----|-------2-----|------------|
G|-------4----| -------2----|-------4----|-------3-----|-------0----|
D|----4-------| ----2-------|----5-------|----4--------|-------2----|
A|-2--------2-| -0--------0-|------------|-------------|----2-------|
E|------------| ------------|-3--------3-|-2---------2-|-0--------0-|

Bm             A
Feel the vibe, feel the terror, feel the pain
     G        F#
It's driving me insane
Bm           A
I can't fake, for god sakes why am I
   G          F#
Driving in the wrong lane

Bm         A
Trouble is my middle name
   G         F#
But in the end I'm not too bad
Bm      A
Can someone tell me if it's
   G         F#
wrong to be so mad

   Bm  A
about you
G F#
Maaad
   Bm  A
about you
G F#
Maaad

Bm             A
Are you the fishy wine that will give me
   G      F#
A headache in the morning
Bm         A
Or just a dark blue land mine
  G           F#
That'll explode without a decent warning

Bm            A
Give me all your true hate
  G            F#
And I'll translate it in our bed
Bm            A
Into never seen passion, never seen passion
  G           F#
That is why I am so mad

   Bm  A
about you
G F#
Maaad
   Bm  A
about you
G F#
Maaad

 Em
Trouble is your middle name
        F#
But in the end you're not too bad
  Em
Can someone tell me if it's
 F#
wrong to be so mad

   Bm  A
about you
G F#
Maaad
   Bm  A
about you
G F#
Maaad
   Bm  A
about you
G F#
Maaad
   Bm  A
about you
G F#
Maaad

[Solo]

E|-2-----------------------2-----------2-----------2-----------------------------------------------|
B|-------------0--2--3--5-----------3-----------3-----------0--3--0-----3--0--------------2--3--5--|
G|-------------------------------------------------------------------0-----------------------------|
D|-------------------------------------------------------------------------------------------------|
A|-------------------------------------------------------------------------------------------------|
E|-------------------------------------------------------------------------------------------------|

E|-2-----------------------2-----------2-----------2-----------------------------------------------|
B|-------------0--2--3--5-----------3-----------3-----------0--3--0-----3--0--------------2--3--0--|
G|-------------------------------------------------------------------0-----------------------------|
D|-------------------------------------------------------------------------------------------------|
A|-------------------------------------------------------------------------------------------------|
E|-------------------------------------------------------------------------------------------------|

 Em
Give me all your true hate
        F#
And I'll translate it in your bed
   Em
Into never seen passion
 F#
That is why I am so mad

   Bm  A
about you
G F#
Maaad
   Bm  A
about you
G F#
Maaad

[Final] Bm  A  G  F# 
        Bm  A  G  F# 
        Bm  A  G  F# 
        Bm
00:00 / 00:00
Otros videos de esta canción
Repetir
Otros videos de esta canción
Composición de Alex Callier
Colaboración y revisión:
  • Caio Nobre
1.287 exhibiciones
    • ½ Tono
    • A
    • Bb
    • B
    • C
    • Db
    • D
    • Eb
    • E
    • F
    • F#
    • G
    • Ab
  • Agregar a la lista
    00:00 / 00:00
    OK