Cifra Club

Renaissance Affair

Hooverphonic

Cifrado: Principal (guitarra y guitarra eléctrica)
Selo Cifra Club: esta cifra foi revisada para atender aos critérios oficiais da nossa Equipe de Qualidade.
tono: D
G   320003
Em  022000
Bm  x24432
Dm  x57765

This pattern is repeated over and over for 12 times

[Intro]

    G                                Em
E|-----------------------------------|---------------------------------------|
B|-----------------------------------|---------------------------------------|
G|-----------------------------------|---------------------------------------|
D|--------0---------------0----------|--------2---------------2--------------|
A|----2-------2---2---2-------0-0-0--|----2-------2---2---2-------2-2-0------|
E|--3---3-------3---3---3------------|--0---0-------0---0---0----------------|

    Bm                               Dm
E|-----------------------------------|---------------------------------------|
B|-----------------------------------|---------------------------------------|
G|--------4---------------4----------|--------7---------------7--------------|
D|----4-------4---4---4-------4---4--|----7-------7---7---7-------7---7------|
A|--2---2-------2---2---2-------2----|--5---5-------5---5---5-------5--------|
E|-----------------------------------|---------------------------------------|

    G                                Em
E|-----------------------------------|---------------------------------------|
B|-----------------------------------|---------------------------------------|
G|-----------------------------------|---------------------------------------|
D|--------0---------------0----------|--------2---------------2--------------|
A|----2-------2---2---2-------0-0-0--|----2-------2---2---2-------2-2-0------|
E|--3---3-------3---3---3------------|--0---0-------0---0---0----------------|

    Bm                               Dm
E|-----------------------------------|---------------------------------------|
B|-----------------------------------|---------------------------------------|
G|--------4---------------4----------|--------7---------------7--------------|
D|----4-------4---4---4-------4---4--|----7-------7---7---7-------7---7------|
A|--2---2-------2---2---2-------2----|--5---5-------5---5---5-------5--------|
E|-----------------------------------|---------------------------------------|


[Verse]

           Sweet relief calms me down   /  Makes me drown lost and found
   G                                    Em
E|--------------------------------------|---------------------------------------|
B|--------------------------------------|---------------------------------------|
G|--------------------------------------|---------------------------------------|
D|--------0---------------0-------------|--------2---------------2--------------|
A|----2-------2---2---2-------0-0-0-----|----2-------2---2---2-------2-2-0------|
E|--3---3-------3---3---3---------------|--0---0-------0---0---0----------------|

  Neighbours complain sheets are stained  / Hotel shower the best around
    Bm                                  Dm
E|--------------------------------------|---------------------------------------|
B|--------------------------------------|---------------------------------------|
G|--------4---------------4-------------|--------7---------------7--------------|
D|----4-------4---4---4-------4---4-----|----7-------7---7---7-------7---7------|
A|--2---2-------2---2---2-------2-------|--5---5-------5---5---5-------5--------|
E|--------------------------------------|---------------------------------------|


[Chorus]

         Spacing from Paris to New York  /  Silver sunglasses silver phone
   G                                    Em
E|--------------------------------------|---------------------------------------|
B|--------------------------------------|---------------------------------------|
G|--------------------------------------|---------------------------------------|
D|--------0---------------0-------------|--------2---------------2--------------|
A|----2-------2---2---2-------0-0-0-----|----2-------2---2---2-------2-2-0------|
E|--3---3-------3---3---3---------------|--0---0-------0---0---0----------------|

  Connect us to someone who doesn't know  / About these feelings we can't control
    Bm                                  Dm
E|--------------------------------------|---------------------------------------|
B|--------------------------------------|---------------------------------------|
G|--------4---------------4-------------|--------7---------------7--------------|
D|----4-------4---4---4-------4---4-----|----7-------7---7---7-------7---7------|
A|--2---2-------2---2---2-------2-------|--5---5-------5---5---5-------5--------|
E|--------------------------------------|---------------------------------------|

    G                                Em
E|-----------------------------------|---------------------------------------|
B|-----------------------------------|---------------------------------------|
G|-----------------------------------|---------------------------------------|
D|--------0---------------0----------|--------2---------------2--------------|
A|----2-------2---2---2-------0-0-0--|----2-------2---2---2-------2-2-0------|
E|--3---3-------3---3---3------------|--0---0-------0---0---0----------------|

    Bm                               Dm
E|-----------------------------------|---------------------------------------|
B|-----------------------------------|---------------------------------------|
G|--------4---------------4----------|--------7---------------7--------------|
D|----4-------4---4---4-------4---4--|----7-------7---7---7-------7---7------|
A|--2---2-------2---2---2-------2----|--5---5-------5---5---5-------5--------|
E|-----------------------------------|---------------------------------------|


[Verse]

         People they want us to fall down /  But we won't ever touch the ground
   G                                    Em
E|--------------------------------------|---------------------------------------|
B|--------------------------------------|---------------------------------------|
G|--------------------------------------|---------------------------------------|
D|--------0---------------0-------------|--------2---------------2--------------|
A|----2-------2---2---2-------0-0-0-----|----2-------2---2---2-------2-2-0------|
E|--3---3-------3---3---3---------------|--0---0-------0---0---0----------------|

  'Cause we're perfectly balanced       / 'Til no one is near do you hear this sound
                    we'll float around
    Bm                                  Dm
E|--------------------------------------|---------------------------------------|
B|--------------------------------------|---------------------------------------|
G|--------4---------------4-------------|--------7---------------7--------------|
D|----4-------4---4---4-------4---4-----|----7-------7---7---7-------7---7------|
A|--2---2-------2---2---2-------2-------|--5---5-------5---5---5-------5--------|
E|--------------------------------------|---------------------------------------|


[Chorus]

          Spacing from Paris to New York  /  Silver sunglasses silver phone
   G                                    Em
E|--------------------------------------|---------------------------------------|
B|--------------------------------------|---------------------------------------|
G|--------------------------------------|---------------------------------------|
D|--------0---------------0-------------|--------2---------------2--------------|
A|----2-------2---2---2-------0-0-0-----|----2-------2---2---2-------2-2-0------|
E|--3---3-------3---3---3---------------|--0---0-------0---0---0----------------|

  Connect us to someone who doesn't know  / About these feelings we can't control
    Bm                                  Dm
E|--------------------------------------|---------------------------------------|
B|--------------------------------------|---------------------------------------|
G|--------4---------------4-------------|--------7---------------7--------------|
D|----4-------4---4---4-------4---4-----|----7-------7---7---7-------7---7------|
A|--2---2-------2---2---2-------2-------|--5---5-------5---5---5-------5--------|
E|--------------------------------------|---------------------------------------|

E|--------| Repeat below 4 times --------

    G                                Em
E|-----------------------------------|---------------------------------------|
B|-----------------------------------|---------------------------------------|
G|-----------------------------------|---------------------------------------|
D|--------0---------------0----------|--------2---------------2--------------|
A|----2-------2---2---2-------0-0-0--|----2-------2---2---2-------2-2-0------|
E|--3---3-------3---3---3------------|--0---0-------0---0---0----------------|

    Bm                               Dm
E|-----------------------------------|---------------------------------------|
B|-----------------------------------|---------------------------------------|
G|--------4---------------4----------|--------7---------------7--------------|
D|----4-------4---4---4-------4---4--|----7-------7---7---7-------7---7------|
A|--2---2-------2---2---2-------2----|--5---5-------5---5---5-------5--------|
E|-----------------------------------|---------------------------------------|

E|-------------------------------|

[Outro]

       This strange feeling captures us /  It generates this huge fuzz

   G                                    Em
E|--------------------------------------|---------------------------------------|
B|--------------------------------------|---------------------------------------|
G|--------------------------------------|---------------------------------------|
D|--------0---------------0-------------|--------2---------------2--------------|
A|----2-------2---2---2-------0-0-0-----|----2-------2---2---2-------2-2-0------|
E|--3---3-------3---3---3---------------|--0---0-------0---0---0----------------|

    I miss you all the time I must face / I miss your touch and your embrace

    Bm                                  Dm
E|--------------------------------------|---------------------------------------|
B|--------------------------------------|---------------------------------------|
G|--------4---------------4-------------|--------7---------------7--------------|
D|----4-------4---4---4-------4---4-----|----7-------7---7---7-------7---7------|
A|--2---2-------2---2---2-------2-------|--5---5-------5---5---5-------5--------|
E|--------------------------------------|---------------------------------------|
Otros videos de esta canción
    7 exhibiciones
      • ½ Tono
      • A
      • Bb
      • B
      • C
      • Db
      • D
      • Eb
      • E
      • F
      • F#
      • G
      • Ab
    • Agregar a la lista

    Afinação da cifra

    Afinador online

      Ops (: Contenido disponible solo en portugués.
      OK